PrimaNota.ru - самый крупный в мире бесплатный архив песенных текстов, аккордов, табулатур и нот


The Black Pacific - Living With Ghosts - таба, видео

Регистрация Запомнить меня
Войти через:  Facebook Google Twitter Vk Yandex Mail.ru

The Black Pacific - Living With Ghosts - таба, видео

Печатать
Просмотров: 92
Уроки эстрадного вокала в Санкт-Петербурге
song:  Living with ghosts
Artist: The Black Pacific
Album: The Black Pacific

Feel free to leave comments if you think soemthing is wrong

 -Intro- [with wah or some other weird effect]
0:0
e|----------------------------------------------|
b|-8--10-10-10-10-8-8-8-8-11-11-11-11-10-10-10--|x4
g|-8---8--8--8--8-8-8-8-8--8--8--8--8--8--8--8--|
D|----------------------------------------------|
A|----------------------------------------------|
E|----------------------------------------------|

0:12
e|--------------------------|
b|--------------------------|
g|-------------6-66---------|
D|-8-88--4-44--6-66--6667---|
A|-8-88--4-44--4-44--6667---|
E|-6-66--2-22--------4445---|

  -verse-
e|---------------------------------| 
b|---------------------------------|
g|---------------6-----------------|
D|-8-----4-------6-x8--6-----7-----|
A|-8-x8--4-x8----4-----6-x7--7-----|
E|-6-----2-------------4-----5-----|
  There are four of these in one verse
  palm mute the first two then just
  play the second two.

the chorus is the same as the intro

-solo-
e|----------------------------------------------------------------------| 
b|------------------------------------------------------------------11--|
g|-------6-8-6-8b10-10-10-10-6--8-8-6-6-8-6-8-6-8b10-8b10 8b10r8p6------|
D|----6-8---------------------8------8-----------------------------8----|
A|--/8------------------------------------------------------------------|
E|----------------------------------------------------------------------|

those are all the parts of the song listen to the song to get the order
The intro is sometimes used as a bridge listen for that, thanks!
Добавлено: 17.06.2012
Другие материалы по этой песне:

Страница создана 17.06.2012
http://primanota.ru/the-black-pacific/living-with-ghosts-chords.htm
Привет, Гость.
Предлагаем пройти революционный курс по гитаре.
Подарок от PrimaNota.Ru, забирай!