PrimaNota.ru - самый крупный в мире бесплатный архив песенных текстов, аккордов, табулатур и нот


The Black Mages - Dancing Mad - таба, видео

Регистрация Запомнить меня
Войти через:  Facebook Google Twitter Vk Yandex Mail.ru

The Black Mages - Dancing Mad - таба, видео

Печатать
Просмотров: 91


                            The Black Mages
                                Dancing Mad

------------------------|-------------------------------------|
------------------------|--12b--------12pb----12pb----12pb----|
------------------------|-------------------------------------|
------------------------|-------------------------------------|
--------------7--13\----|-------------------------------------|
--------------5--11\----|-------------------------------------|

------------------------9-11-|--12----------------|--10br--------10~--------|
--12pbr--------12~-----------|--------------------|-------------------------|
-----------------------------|--------------------|-------------------------|
-----------------------------|--------------------|-------------------------|
-----------------------------|--------------------|-------------------------|
-----------------------------|--------------------|-------------------------|


--10--------9--------7--|--7-------------------|------------------------|
---------------8--9-----|-------9----10--------|--10--------9--------7--|
------------------------|----------------------|---------------7--8-----|
------------------------|----------------------|------------------------|
------------------------|----------------------|------------------------|
------------------------|----------------------|------------------------|

------------------------|------------------------|---------------------|
--7------------------9--|------------------------|---------------------|
-----------9------9-----|--11b--------11----9----|--8br----------------|
--------------11--------|------------------------|---------------------|
------------------------|------------------------|---------------------|
------------------------|------------------------|---------------------|


------------------------|--8br----------------|--8~-----------------9---|
-------------------7g9--|---------------------|----------------7g9----9-|
--8~------------L-------|---------------------|-------------------------|
------------------------|---------------------|-------------------------|
------------------------|---------------------|-------------------------|
------------------------|---------------------|-------------------------|


-------------------------------|---------------------------|
--12b------12pb--12pb~---------|--12br----L----------------|
----------------------------9--|-------------9--11~--------|
-------------------------------|---------------------------|
-------------------------------|---------------------------|
-------------------------------|---------------------------|

--------------------------------------9-11-|----------------------------|
-----------------------9-10-12-------------|--9------10-9-7~------------|
----------------8-9-11---------11g13-------|----------------------------|
-----------9-11----------------------------|----------------------9g11--|
-----9g11----------------------------------|----------------------------|
-------------------------------------------|----------------------------|


------------------------------9--11--12--|--12br--------12~--------|
--9----------9~----9--10--12-------------|-------------------------|
----11-10-11-----------------------------|-------------------------|
-----------------------------------------|-------------------------|
-----------------------------------------|-------------------------|
-----------------------------------------|-------------------------|


--11br--------11~-----------|--11------12--9~--------|
-----------------------7g9--|------------------------|
----------------------------|------------------------|
----------------------------|------------------------|
----------------------------|------------------------|
----------------------------|------------------------|

--9---7---------------------------|------------------------|
----9---7-9---7-------------------|------------------------|
------------9---6-9-11-9-8-----8--|--8b------------8br---6-|
---------------------------11-----|------------------------|
----------------------------------|------------------------|
----------------------------------|------------------------|


--------------------|--14br---L-12-----------------------------|
--------------------|--------------14--------------------------|
--8~----------------|-----------------13--------------------9--|
--------------------|--------------------13-14-11-13-10-11-----|
--------------------|------------------------------------------|
--------------------|------------------------------------------|


---------9----------------|
--------------------------|
--11b-------11b--L--------|
--------------------------|
--------------------------|
--------------------------|

------9-------------9-------------9---------------9-----------9----|
----9---12-9------9---12-9------9---12-9-9------9---12------9---12-|
--L----------11pb----------11pb------------11pb--------11pb--------|
-------------------------------------------------------------------|
-------------------------------------------------------------------|
-------------------------------------------------------------------|

---------9-----------9-----------9-----------9-----------------12-14br-|
-------9---12------9---12------9---12------9---12-----------12---------|
--11pb--------11pb--------11pb--------11pb--------11~----13------------|
-----------------------------------------------------------------------|
-----------------------------------------------------------------------|
-----------------------------------------------------------------------|

--L------L-12-14b~--------|--14-12-14-16br-L----14~--------|
--------------------------|--------------------------------|
--------------------------|--------------------------------|
--------------------------|--------------------------------|
--------------------------|--------------------------------|
--------------------------|--------------------------------|

--17b---17pb-17pb--17pb--17pb--17--16--17s--19--|
------------------------------------------------|
------------------------------------------------|
------------------------------------------------|
------------------------------------------------|
------------------------------------------------|


--19------17-16-----16--17b---L--|--19------17-16-----16--16b------|
----------------19---------------|----------------19------------19-|
---------------------------------|---------------------------------|
---------------------------------|---------------------------------|
---------------------------------|---------------------------------|
---------------------------------|---------------------------------|

--16~--------------------------16-17-|
----------------------16-17-19-------|
---------------16g18-----------------|
-------------------------------------|
-------------------------------------|
-------------------------------------|

--19-17-16----17-16----16-------------------------------------------------|
-----------19-------19----19-17-16-19-17-16----16-------------------------|
--------------------------------------------18----18-16-18-16----16-------|
--------------------------------------------------------------19----19-18-|
--------------------------------------------------------------------------|
--------------------------------------------------------------------------|

----------------------------------------------------------------------------|
-----------------------------------------------------------------------16br-|
-----16----------------------------------------------------------16-18------|
--18----19-18-19-18-16----16----------------------------16-18-19------------|
-----------------------19----19-18-19-18-16-19-16-18-19---------------------|
----------------------------------------------------------------------------|


---------------------------------|
--L------L----16~-------16-17-19-|
-----------18--------18----------|
---------------------------------|
---------------------------------|
---------------------------------|

-------16h-19p-16----16h-19p-16----16h-19p-16----16h-19p-16----16~--16h-19p-16---|
--19b-------------19------------19------------19------------19-----------------1-|
---------------------------------------------------------------------------------|
---------------------------------------------------------------------------------|
---------------------------------------------------------------------------------|
---------------------------------------------------------------------------------|


--16h-19p-16----16h-19p-16----16h-19p-16----16h-19p-16----16h-19p-16----16--16---|
-------------19------------19------------19------------19------------19--------1-|
---------------------------------------------------------------------------------|
---------------------------------------------------------------------------------|
---------------------------------------------------------------------------------|
---------------------------------------------------------------------------------|


-----------------------------------------------------------------------------|
--17-16-15-14-16-15-14-12-14-13-12-11-12-11-10-9-9-------------------------9-|
---------------------------------------------------11-9-11-9----9-----9-11---|
-------------------------------------------------------------11----11--------|
-----------------------------------------------------------------------------|
-----------------------------------------------------------------------------|


-------------------9-------11br--|--L--------9~--------|
--10~------9-10-12------9--------|---------------------|
---------------------------------|---------------------|
---------------------------------|---------------------|
---------------------------------|---------------------|
---------------------------------|---------------------|


--L----9--10--12--12b------12--|--9~--------9----11----12----|
-------------------------------|-----------------------------|
-------------------------------|-----------------------------|
-------------------------------|-----------------------------|
-------------------------------|-----------------------------|
-------------------------------|-----------------------------|


--12b--------L------16br--L--|--16~--------------------16--|
----------------14-----------|-----------------17--19------|
-----------------------------|-----------------------------|
-----------------------------|-----------------------------|
-----------------------------|-----------------------------|
-----------------------------|-----------------------------|


--17--------19--------|--21~----------------|--L----------------|
----------------------|---------------------|-------------------|
----------------------|---------------------|-------------------|
----------------------|---------------------|-------------------|
----------------------|---------------------|-------------------|
----------------------|---------------------|-------------------|

Tablature Legend
----------------
L - tied note
x - dead note
g - grace note
(n) - ghost note
> - accentuded note
NH - natural harmonic
AH - artificial harmonic
TH - tapped harmoni
SH - semi harmonic
PH - pitch harmonic
h - hammer on
p - pull off
b - bend
br - bendRelease
pb - preBend
pbr - preBendRelease
brb - bendReleaseBend
\n/ - tremolo bar dip
\n - tremolo bar dive
-/n - tremolo bar Release up
/n\ - tremolo bar inverted dip
/n - tremolo bar return
-\n - tremolo bar Release down
S - shift slide
s - legato slide
/ -  slide into from below or out of upwards
\ -  slide into from above or out of downwards
~ - vibrato
W - wide vibrato
tr - trill
TP - tremolo picking
T - tapping
< - fade in
^ - brush up
v - brush down

Trancribed by: And2001PT
Добавлено: 01.04.2012
Другие материалы по этой песне:

Страница создана 17.03.2012
http://primanota.ru/the-black-mages/dancing-mad-chords.htm
Привет, Гость.
Предлагаем пройти революционный курс по гитаре.
Подарок от PrimaNota.Ru, забирай!