PrimaNota.ru - самый крупный в мире бесплатный архив песенных текстов, аккордов, табулатур и нот


The Black Knights - Hood Liberator - таба, видео

Регистрация Запомнить меня
Войти через:  Facebook Google Twitter Vk Yandex Mail.ru

The Black Knights - Hood Liberator - таба, видео

Печатать
Просмотров: 71
-------------------------------------------------------------------------------
                             Black Knights - Hood Liberator
-------------------------------------------------------------------------------
Tabbed by:
E-mail:

Tuning:

e|---------------------------------------------------------------------------|
B|---------------------------------------------------------------------------|
G|---------------------------------------------------------------------------|
D|--11-12-14-14-12-11--------------------------------------------------------|
A|---------------------14-16-17-17-16-14-------------------------------------|
E|---------------------------------------------------------------------------|

e|---------------------------------------------------------------------------|
B|---------------------------------------------------------------------------|
G|---------------------------------------------------------------------------|
D|----15--15h16--16s18--16---------------------------------------------------|
A|-16------------------------------------------------------------------------|
E|---------------------------------------------------------------------------|

************************************

| /   slide up
| \   slide down
| h   hammer-on
| p   pull-off
| ~   vibrato
| +   harmonic
| x   Mute note
| b   Bend
| pb  Pre-bend
| br  Bend release
| pbr Pre-bend release
| brb Bend release bend

************************************
Добавлено: 26.05.2016
Другие материалы по этой песне:
  • Аккорды и текст

Страница создана 26.05.2016
http://primanota.ru/the-black-knights/hood-liberator-chords.htm
Привет, Гость.
Предлагаем пройти революционный курс по гитаре.
Подарок от PrimaNota.Ru, забирай!