PrimaNota.ru - самый крупный в мире бесплатный архив песенных текстов, аккордов, табулатур и нот


The Black Halos - No Tomorrow Girls - аккорды и текст, видео

Регистрация Запомнить меня
Войти через:  Facebook Google Twitter Vk Yandex Mail.ru

The Black Halos - No Tomorrow Girls - аккорды и текст, видео

Печатать
Просмотров: 79
Уроки эстрадного вокала в Санкт-Петербурге
No Tomorrow Girls
The Black Halos
Band: The Black Halos
Album: The Violent Years
Tabbed by: Chris Krause


The Black Halos are a decent punk band from Vancouver, Canada. I saw them
when
they came through town opening for the Offspring. The put on a good enough
show
that a few days later I decided to buy their CD.

The music is fast paced and aggressive, but the obvious production on the CD
and
warm, smooth distortion makes them seem more like a rock band that just
happens
to play really fast and use a lot of sing-a-long choruses.



Tuning: Tune down 1/2 step, i.e. Eb Ab Db Gb Bb eb


INTRO:  (0:00)

   E5
         -------palm-mute--------->
eb--------------------------------------|
Bb--------------------------------------|
Gb-9----9-9-9-9-9-9-9-9-9-9-9-9-9-9-----|   [x4]
Db-9----9-9-9-9-9-9-9-9-9-9-9-9-9-9-----|
Ab-7----7-7-7-7-7-7-7-7-7-7-7-7-7-7-----|
Eb--------------------------------------|



VERSE: (0:11),(0:54)

   A5      C#5
eb-------------------------------|-------------------------------|
Bb-------------------------------|-------------------------------|
Gb-------------------------------|-6--6--6-6-6-6-6-6-6-6-6-6-6-6-|
Db-7--7--7-7-7-7-7-7-7-7-7-7-7-7-|-6--6--6-6-6-6-6-6-6-6-6-6-6-6-|
Ab-7--7--7-7-7-7-7-7-7-7-7-7-7-7-|-4--4--4-4-4-4-4-4-4-4-4-4-4-4-|
Eb-5--5--5-5-5-5-5-5-5-5-5-5-5-5-|-------------------------------|



  F#5       D5
eb-------------------------------|-------------------------------|
Bb-------------------------------|-------------------------------|
Gb-------------------------------|-7--7--7-7-7-7-7-7-7-7-7-7-7-7-|
Db-4--4--4-4-4-4-4-4-4-4-4-4-4-4-|-7--7--7-7-7-7-7-7-7-7-7-7-7-7-|
Ab-4--4--4-4-4-4-4-4-4-4-4-4-4-4-|-5--5--5-5-5-5-5-5-5-5-5-5-5-5-|
Eb-2--2--2-2-2-2-2-2-2-2-2-2-2-2-|-------------------------------|





CHORUS: (0:43), (1:26), (2:12)

   E5       F#5 E5 A5            D5      F#5 E5
eb--------------------|--------|-----------------|
Bb--------------------|--------|-----------------|
Gb-9---9--9---11-9----|--------|-7---7-7--11-9---|
Db-9---9--9---11-9-7--|--[x3]--|-7---7-7--11-9---|
Ab-7---7--7---9--7-7--|--------|-5---5-5--9--7---|
Eb-----------------5--|--------|-----------------|



BRIDGE Pt 1: (1:36)

   D5       C#5        A5              G#5
eb------------------------------------------|
Bb------------------------------------------|
Gb-7---------6------------------------------|
Db-7---------6---------7-----------7----6---|
Ab-5---------4---------7-----------7----6---|
Eb---------------------5-----------5----4---|




BRIDGE Pt 2: (1:42)

  F#5               D5               A5               E5
eb----------------|----------------|----------------|----------------|
Bb----------------|----------------|----------------|----------------|
Gb----------------|-7--7-7-7-7-7-7-|----------------|-9--9-9-9-9-9-9-|
Db-4--4-4-4-4-4-4-|-7--7-7-7-7-7-7-|-7--7-7-7-7-7-7-|-9--9-9-9-9-9-9-|
Ab-4--4-4-4-4-4-4-|-5--5-5-5-5-5-5-|-7--7-7-7-7-7-7-|-7--7-7-7-7-7-7-|
Eb-2--2-2-2-2-2-2-|----------------|-5--5-5-5-5-5-5-|----------------|


  F#5               D5               E5
eb----------------|----------------|----------------|-----------------|
Bb----------------|----------------|----------------|-----------------|
Gb----------------|-7--7-7-7-7-7-7-|-9--9-9-9-9-9-9-|-9-9-9-9-9-9-9-9-|
Db-4--4-4-4-4-4-4-|-7--7-7-7-7-7-7-|-9--9-9-9-9-9-9-|-9-9-9-9-9-9-9-9-|
Ab-4--4-4-4-4-4-4-|-5--5-5-5-5-5-5-|-7--7-7-7-7-7-7-|-7-7-7-7-7-7-7-7-|
Eb-2--2-2-2-2-2-2-|----------------|----------------|-----------------|

(eb-----------------|--------|-----------------|------------------------|)
(Bb-----------------|--o-/---|-----------------|------------------------|)
(Gb-9-9-9-9-9-9-9-9-|---/----|-7-7-7-7-7-7-7-7-|11-11-11-11-11-11-11-11-|)
(Db-9-9-9-9-9-9-9-9-|--/-o---|-7-7-7-7-7-7-7-7-|11-11-11-11-11-11-11-11-|)
(Ab-7-7-7-7-7-7-7-7-|--------|-5-5-5-5-5-5-5-5-|9--9--9--9--9--9--9--9--|)
(Eb-----------------|--------|-----------------|------------------------|)



NOTE:  -The above section is played twice. The last 4 measures above (in
 brackets) are played 2nd time only.

       -The first time use turn the volume way down or use heavy palm muting
        (the guitar is barely audible, it's mostly just bass). The 2nd time
        the volume is a gradual crescendo over the first 7 measures and full
 volume from then on.

       -The percent (%) symbol means repeat the previous measure. I just
 used it to save space.



FILLS AND ADDITIONAL GUITAR PARTS:

There are 2 places where they throw in a guitar "lead". You can play the
song with 1 guitar no problem, but if you have 2, one of them can throw
this stuff in whenever you get bored.


The first is over some of the verses (for example at time (0:54)).
Just listen to the CD to get the feel (or fake it - I'm sure they do).

    A5   C#5
eb--5--5-----5-----5---|-9--9-------9-------9-----|
Bb--5----5-----5----5--|-9----9-------9------9----|
Gb--6------6-----6---6-|-10-----10------10----10--|
Db--7------------------|-11-----------------------|
Ab---------------------|--------------------------|
Eb---------------------|--------------------------|



   F#5    D5
eb--2--2-----2-----2---|-10--10-------10-------10-----|
Bb--2----2-----2----2--|-10-----10-------10------10---|
Gb--3------3-----3---3-|-11--------11-------11-----11-|
Db--4------------------|-12---------------------------|
Ab---------------------|------------------------------|
Eb---------------------|------------------------------|




The 2nd lead fill they have is this:

eb----------------------------|
Bb----------------------------|
Gb--14-14-14-14-13-13-13-13-9-|
Db----------------------------|
Ab--12-12-12-12-11-11-11-11-7-|
Eb----------------------------|

You can hear it numerous times, for example at (0:09), (0:30).
It's normally played over the verse chords.


In case you really want it, here's the song structure:

Intro
Verse x3 (that means perform what I tabbed out 3 times, not 3 verses in a
row)
Chorus
Verse x2
Chorus
Bridge Pt1
Bridge Pt2
Chorus x2, then repeat last measure of chorus until you're done.



Well, that's it for this tab. To comment or request other tab from this
album,
email me at ckrause@ualberta.ca.

     
Добавлено: 23.07.2013
Другие материалы по этой песне:
  • Аккорды и текст

Страница создана 23.07.2013
http://primanota.ru/the-black-halos/no-tomorrow-girls-chords.htm
Привет, Гость.
Предлагаем пройти революционный курс по гитаре.
Подарок от PrimaNota.Ru, забирай!