PrimaNota.ru - самый крупный в мире бесплатный архив песенных текстов, аккордов, табулатур и нот


The Black Box Revelation - Our Town Has Changed For Years - таба, видео

Регистрация Запомнить меня
Войти через:  Facebook Google Twitter Vk Yandex Mail.ru

The Black Box Revelation - Our Town Has Changed For Years - таба, видео

Печатать
Просмотров: 63
Band : The Black Box Revelation
Song : Our Town Has Changed For Years
Album : Silver Threats (2010)

Hallo! Ik heb dit liedje zelf ingespeeld op youtube (http://www.youtube.com/watch?
v=DiCMH0OdK_E) dus zeker kijken! :p

Deze song wordt een halve toon lager gestemd (Eb Ab Db Gb Bb Eb)

Intro

Eb|----------------------------------| \
Bb|-------5-------0------------------|  \
Gb|-0-0-0---0-7-0---0-0-0------------|   \  x2
Db|------------------------7--5-5----|   /
Ab|-------------------------------5--|  /
Eb|----------------------------------| /

Eb|----------------------------------| \
Bb|----------------0-----------------|  \
Gb|----0-----------------------------|   \  x2
Db|--------9---7-------7----7-5------|   /
Ab|-/7---7---7---7---7---7------7-5--|  /
Eb|----------------------------------| /
                                          I see 

Verse 1

Eb|----------------------------------| 
Bb|-------5-------0------------------|  
Gb|-0-0-0---0-7-0---0-0-0------------|  
Db|------------------------7--5-5----|   
Ab|-------------------------------5--|  
Eb|----------------------------------| 
Po - licemen      Riding dogs              Their


Eb|----------------------------------| 
Bb|-------5-------0------------------|  
Gb|-0-0-0---0-7-0---0-0-0------------|   
Db|------------------------7--5-5----|   
Ab|-------------------------------5--|  
Eb|----------------------------------| 
   Power    has   de - creased             I see

Eb|----------------------------------| 
Bb|----------------0-----------------|  
Gb|----0-----------------------------|   
Db|--------9---7-------7----7-5------|   
Ab|-/7---7---7---7---7---7------7-5--|  
Eb|----------------------------------| 
   mad     horses   running

Eb|----------------------------------| 
Bb|----------------0-----------------|  
Gb|----0-----------------------------|   
Db|--------9---7-------7----7-5------|   
Ab|-/7---7---7---7---7---7------7-5--|  
Eb|----------------------------------| 
    Children bound to their feet

Eb|----------------------------------| 
Bb|-------5-------0------------------|  
Gb|-0-0-0---0-7-0---0-0-0------------|   
Db|------------------------7--5-5----|   
Ab|-------------------------------5--|  
Eb|----------------------------------|
   Punished by their mothers

Eb|----------------------------------| 
Bb|-------5-------0------------------|  
Gb|-0-0-0---0-7-0---0-0-0------------|   
Db|------------------------7--5-5----|   
Ab|-------------------------------5--|  
Eb|----------------------------------|
   Furious   as  hell

Eb|----------------------------------| 
Bb|----------------0-----------------|  
Gb|----0-----------------------------|   
Db|--------9---7-------7----7-5------|   
Ab|-/7---7---7---7---7---7------7-5--|  
Eb|----------------------------------| 
   Pri-son-ers    out-side              Selling the

Eb|----------------------------------| 
Bb|----------------0-----------------|  
Gb|----0-----------------------------|   
Db|--------9---7-------7----7-5------|   
Ab|-/7---7---7---7---7---7------7-5--|  
Eb|----------------------------------| 
    old  keys to their cells              Our

Chorus

Eb|-------------------------|
Bb|----------0---------0-0--|
Gb|----0--------------------|
Db|--------7------0-7-------|
Ab|-/7---7------7-----------|
Eb|-------------------------|
   Town          has changed           for years

Eb|----------------------------------| 
Bb|----------------0-----------------|  
Gb|----0-----------------------------|   
Db|--------9---7-------7----7-5------|   
Ab|-/7---7---7---7---7---7------7-5--|  
Eb|----------------------------------| 
   Now

Eb|--------------------| 
Bb|----------------0~--|  
Gb|----0---------------|   
Db|--------9---7-------|  
Ab|-/7---7---7---7-----| 
Eb|--------------------|
                                 Is it

Verse 2

Eb|----------------------------------| 
Bb|-------5-------0------------------|  
Gb|-0-0-0---0-7-0---0-0-0------------|  
Db|------------------------7--5-5----|   
Ab|-------------------------------5--|  
Eb|----------------------------------| 
   better  than  before?                   I

Eb|----------------------------------| 
Bb|-------5-------0------------------|  
Gb|-0-0-0---0-7-0---0-0-0------------|   
Db|------------------------7--5-5----|   
Ab|-------------------------------5--|  
Eb|----------------------------------| 
   had  my doubts about this              Found

Eb|----------------------------------| 
Bb|----------------0-----------------|  
Gb|----0-----------------------------|   
Db|--------9---7-------7----7-5------|   
Ab|-/7---7---7---7---7---7------7-5--|  
Eb|----------------------------------| 
   guilty   I  got caught                 They sent me

Eb|----------------------------------| 
Bb|----------------0-----------------|  
Gb|----0-----------------------------|   
Db|--------9---7-------7----7-5------|   
Ab|-/7---7---7---7---7---7------7-5--|  
Eb|----------------------------------| 
    to  the field of flowers

Eb|----------------------------------| 
Bb|-------5-------0------------------|  
Gb|-0-0-0---0-7-0---0-0-0------------|   
Db|------------------------7--5-5----|   
Ab|-------------------------------5--|  
Eb|----------------------------------|
  Impossible ro run from

Eb|----------------------------------| 
Bb|-------5-------0------------------|  
Gb|-0-0-0---0-7-0---0-0-0------------|   
Db|------------------------7--5-5----|   
Ab|-------------------------------5--|  
Eb|----------------------------------|
   Secured by whale-sized sharks             I

Eb|----------------------------------| 
Bb|----------------0-----------------|  
Gb|----0-----------------------------|   
Db|--------9---7-------7----7-5------|   
Ab|-/7---7---7---7---7---7------7-5--|  
Eb|----------------------------------| 
   Tried to scream for help                  But I for-

Eb|----------------------------------| 
Bb|----------------0-----------------|  
Gb|----0-----------------------------|   
Db|--------9---7-------7----7-5------|   
Ab|-/7---7---7---7---7---7------7-5--|  
Eb|----------------------------------| 
    got they cut my tongue                   Our

Chorus

Eb|-------------------------|
Bb|----------0---------0-0--|
Gb|----0--------------------|
Db|--------7------0-7-------|
Ab|-/7---7------7-----------|
Eb|-------------------------|
   Town          has changed           for years

Eb|----------------------------------| 
Bb|----------------0-----------------|  
Gb|----0-----------------------------|   
Db|--------9---7-------7----7-5------|   
Ab|-/7---7---7---7---7---7------7-5--|  
Eb|----------------------------------| 
   Now                                  Our

Eb|------------------------------|
Bb|----------0---------10-10-10--|
Gb|----0-------------------------|
Db|--------7------0-7------------|
Ab|-/7---7------7----------------|
Eb|------------------------------|
   Town          has changed           for years

Bridge

Eb|-------------------------------------|
Bb|-------------------------------------|
Gb|-------------------------------------|
Db|-------------------------------------|
Ab|-------------------------------------|
Eb|-0~-------0~-------0~-------0~-------|

Outro

Eb|----------------------------------| 
Bb|-------5-------0------------------|  
Gb|-0-0-0---0-7-0---0-0-0------------|  
Db|------------------------7--5-5----|   
Ab|-------------------------------5--|  
Eb|----------------------------------| 

Eb|----------------------------------| 
Bb|-------5-------0------------------|  
Gb|-0-0-0---0-7-0---0-0-0------------|  
Db|------------------------7--5-5----|   
Ab|-------------------------------5--|  
Eb|----------------------------------| 

Eb|----------------------------------| 
Bb|----------------0-----------------|  
Gb|----0-----------------------------|   
Db|--------9---7-------7----7-5------|   
Ab|-/7---7---7---7---7---7------7-5--|  
Eb|----------------------------------| 

Eb|----------------------------------| 
Bb|----------------0-----------------|  
Gb|----0-----------------------------|   
Db|--------9---7-------7----7-5------|   
Ab|-/7---7---7---7---7---7------7-5--|  
Eb|----------------------------------| 

Eb|----------------------------------| 
Bb|-------5-------0------------------|  
Gb|-0-0-0---0-7-0---0-0-0------------|  
Db|------------------------7--5-5----|   
Ab|-------------------------------5--|  
Eb|----------------------------------| 

Eb|----------------------------------| 
Bb|-------5-------0------------------|  
Gb|-0-0-0---0-7-0---0-0-0------------|  
Db|------------------------7--5-5----|   
Ab|-------------------------------5--|  
Eb|----------------------------------| 

Eb|----------------------------------| 
Bb|----------------0-----------------|  
Gb|----0-----------------------------|   
Db|--------9---7-------7----7-5------|   
Ab|-/7---7---7---7---7---7------7-5--|  
Eb|----------------------------------| 

Eb|----------------------------------| 
Bb|----------------0-----------------|  
Gb|----0-----------------------------|   
Db|--------9---7-------7----7-5------|   
Ab|-/7---7---7---7---7---7------7-5--|  
Eb|----------------------------------| 

Eb|----------------------------------|
Bb|-------5-------5------------------|
Gb|-0-0-0---0-7-0---0-7-7-7----------|
Db|----------------------------------|
Ab|----------------------------------|
Eb|----------------------------------|


Music & Words : copyright Jan Paternoster
Tab : copyright Brecht Vandeweyer
Добавлено: 18.10.2013
Другие материалы по этой песне:
  • Аккорды и текст

Страница создана 18.10.2013
http://primanota.ru/the-black-box-revelation/our-town-has-changed-for-years-chords.htm
Привет, Гость.
Предлагаем пройти революционный курс по гитаре.
Подарок от PrimaNota.Ru, забирай!