PrimaNota.ru - самый крупный в мире бесплатный архив песенных текстов, аккордов, табулатур и нот


The Black Box Revelation - Never Alone Always Together - таба, видео

Регистрация Запомнить меня
Войти через:  Facebook Google Twitter Vk Yandex Mail.ru

The Black Box Revelation - Never Alone Always Together - таба, видео

Печатать
Просмотров: 127
This is a great song, by a great band. This is how I play it, I think he plays it 
but it sounds the same so it's not a problem.

Intro/Verse:
      E                                      D
e-----0----0----0----0----0--0--0--0-------------------------------|
b-----5---/8---\7----5----3--5--3--0----------7------7--7----------|
g---------------------------------------7-----7------7--7----7-----| x4
d---------------------------------------7--------------------------|
a------------------------------------5-------5----5--------5-------|
E-0~-----0~--0----0----0-------------------------------------------|

Verse(Singing starts):
             E                                    D
e-----0----0----0----0----0--0--0--0----------------------------------|
b-----5---/8---\7----5----3--5--3--0-----------7------7--7------------|
g---------------------------------------7------7------7--7----7-------| x4
d---------------------------------------7-----------------------------|
a------------------------------------5-------5----5--------5----------|
E-0~-----0~--0----0----0----------------------------------------------|

Bridge:
   B                    A
e-------7~-----------------------5~---------------------------------------|
b-------7~-----------------------5~---------------------------------------|
g-------8~-----------------------6~---------------------------------------|
d-------9~----9---7--------------7~------7b8r7----5---7b8r7---------------|
a-------9~-----------10----7-----7~---------------------------------------|
E-7~-----------------------------5~---------------------------------------|

Chorus:
   G                      B                 Em
e--3---3---x--3--3-----7---7--x---7--7---------7---7-7-7-----7----7-7--7--|
b--3---3---x--3--3-----7---7--x---7--7---------7h8-8-8-7-----7h8--8-8--7--|
g--4---4---x--4--4-----8---8--x---8--8----9-9--9---9-9-9-9-9-9----9-9--9--|
d--5---5---x--5--5-----9---9--x---9--9----9-9--9---9-9-9-9-9-9----9-9--9--|
a--5---5---x--5--5-----9---9--x---9--9----7-7--7---7-7-7-7-7-7----7-7--7--|
E--3---3---x--3--3-----7---7--x---7--7----0-0--0---0-0-0-0-0-0----0-0--0--|

   G                       B                      E
e--3---3---x--3--3-----7---7--x---7--7------------------------------------|
b--3---3---x--3--3-----7---7--x---7--7------------------------------------|
g--4---4---x--4--4-----8---8--x---8--8------------------------------------|
d--5---5---x--5--5-----9---9--x---9--9------------------------------------| x2
a--5---5---x--5--5-----9---9--x---9--9------------------------------------|
E--3---3---x--3--3-----7---7--x---7--7----0~(use whammybar/tremolo)-------|

Verse:
             E                                    D
e-----0----0----0----0----0--0--0--0----------------------------------|
b-----5---/8---\7----5----3--5--3--0-----------7------7--7------------|
g---------------------------------------7------7------7--7----7-------| x4
d---------------------------------------7-----------------------------|
a------------------------------------5-------5----5--------5----------|
E-0~-----0~--0----0----0----------------------------------------------|

Bridge:
   B                    A
e-------7~-----------------------5~---------------------------------------|
b-------7~-----------------------5~---------------------------------------|
g-------8~-----------------------6~---------------------------------------|
d-------9~----9---7--------------7~------7b8r7----5---7b8r7---------------|
a-------9~-----------10----7-----7~---------------------------------------|
E-7~-----------------------------5~---------------------------------------|

Chorus:
   G                      B                 Em
e--3---3---x--3--3-----7---7--x---7--7---------7---7-7-7-----7----7-7--7--|
b--3---3---x--3--3-----7---7--x---7--7---------7h8-8-8-7-----7h8--8-8--7--|
g--4---4---x--4--4-----8---8--x---8--8----9-9--9---9-9-9-9-9-9----9-9--9--|
d--5---5---x--5--5-----9---9--x---9--9----9-9--9---9-9-9-9-9-9----9-9--9--|
a--5---5---x--5--5-----9---9--x---9--9----7-7--7---7-7-7-7-7-7----7-7--7--|
E--3---3---x--3--3-----7---7--x---7--7----0-0--0---0-0-0-0-0-0----0-0--0--|

   G                       B                      E
e--3---3---x--3--3-----7---7--x---7--7------------------------------------|
b--3---3---x--3--3-----7---7--x---7--7------------------------------------|
g--4---4---x--4--4-----8---8--x---8--8------------------------------------|
d--5---5---x--5--5-----9---9--x---9--9------------------------------------| x2
a--5---5---x--5--5-----9---9--x---9--9------------------------------------|
E--3---3---x--3--3-----7---7--x---7--7----0~(use whammybar/tremolo)-------|

For the solo: Just play an open E, and Improvise on the E major pentatonic scale.


Chorus:
   G                      B                 Em
e--3---3---x--3--3-----7---7--x---7--7---------7---7-7-7-----7----7-7--7--|
b--3---3---x--3--3-----7---7--x---7--7---------7h8-8-8-7-----7h8--8-8--7--|
g--4---4---x--4--4-----8---8--x---8--8----9-9--9---9-9-9-9-9-9----9-9--9--|
d--5---5---x--5--5-----9---9--x---9--9----9-9--9---9-9-9-9-9-9----9-9--9--|
a--5---5---x--5--5-----9---9--x---9--9----7-7--7---7-7-7-7-7-7----7-7--7--|
E--3---3---x--3--3-----7---7--x---7--7----0-0--0---0-0-0-0-0-0----0-0--0--|

   G                       B                      E
e--3---3---x--3--3-----7---7--x---7--7------------------------------------|
b--3---3---x--3--3-----7---7--x---7--7------------------------------------|
g--4---4---x--4--4-----8---8--x---8--8------------------------------------|
d--5---5---x--5--5-----9---9--x---9--9------------------------------------| x4
a--5---5---x--5--5-----9---9--x---9--9------------------------------------|
E--3---3---x--3--3-----7---7--x---7--7----0~(use whammybar/tremolo)-------|

Outro:
     E
e-----------12---12------12--12-------12~--|
b-----------12---12------12--12-------12~--|
g------------------------------------------|
d------------------------------------------|x4
a------------------------------------------|
E-0~---------------------------------------|
Добавлено: 20.06.2013
Другие материалы по этой песне:
  • Аккорды и текст

Страница создана 20.06.2013
http://primanota.ru/the-black-box-revelation/never-alone-always-together-chords.htm
Привет, Гость.
Предлагаем пройти революционный курс по гитаре.
Подарок от PrimaNota.Ru, забирай!