PrimaNota.ru - самый крупный в мире бесплатный архив песенных текстов, аккордов, табулатур и нот


The Black Box Revelation - Mirror Of Imagination - таба, видео

Регистрация Запомнить меня
Войти через:  Facebook Google Twitter Vk Yandex Mail.ru

The Black Box Revelation - Mirror Of Imagination - таба, видео

Печатать
Просмотров: 75
-------------------------------------------------------------------------------
		Mirror Of Imagination - The Black Box Revelation
-------------------------------------------------------------------------------
Tabbed by: Stefan De Graef	
Email: stefanneman@hotmail.com

Tuning: E standard (EADGBe)



For the guitar tone he uses a Telecaster through a Vox AC30 amplifier with a 
medium distorted Fuzz and a good ammount of reverb. If you don't have a fuzz, 
you can get a somewhat similar effect by turning your guitar's toneknob to 0.  


Main riff:

e|---------------------------------------------------------------------------|
B|---------------------------------------------------------------------------|
G|-------7-9-7-9b-9--7-------------7---7---7--7------------------------------|
D|------------------------------s7---9---9-----------------------------------|
A|---9---------------------7-------------------------------------------------|
E|---7---------------------5-------------------------------------------------|

e|--------------------------------0------------------------------------------|
B|--------------------------------0------------------------------------------|
G|-----------------------------9--9------------------------------------------|
D|-------7-7-9-9-7--7-------9--9--9------------------------------------------|
A|--(2)---------------------7--7--7------------------------------------------|
E|--(0)--------------------0---0--0------------------------------------------|

e|----------------7-7--7-----------------------------------------------------|
B|----------------7-7--7-----------------------------------------------------|
G|-------7-9-7-9b------------------7---7---7--9b-----------------------------|
D|------------------------------s7---9---9-----------------------------------|
A|---9---------------------7-------------------------------------------------|
E|---7---------------------5-------------------------------------------------|

e|--------------------------------0------------------------------------------|
B|--------------------------------0------------------------------------------|
G|-----------------------------9--9------------------------------------------|
D|-------7-7-9-9-7--7-------9--9--9------------------------------------------|
A|--(2)---------------------7--7--7------------------------------------------|
E|--(0)--------------------0---0--0------------------------------------------|


Verse 2x:


e|-----x-x---x-x-x-----x-x---x-x-x-----x-x---x-x-x-----x-x-------------------|
B|-----x-x---x-x-x-----x-x---x-x-x-----x-x---x-x-x-----x-x-------------------|
G|-----x-x---x-x-x-----x-x---x-x-x-----x-x---x-x-x-----x-x---9-9-9-----------|
D|--9--x-x---x-x-x--7--x-x---x-x-x--2--x-x---x-x-x--2--x-x---9-9-9-----------|
A|--9--x-x---x-x-x--7--x-x---x-x-x--2--x-x---x-x-x--2--x-x---7-7-7-----------|
E|--7--x-x---x-x-x--5--x-x---x-x-x--0--x-x---x-x-x--0--x-x---0-0-0-----------|

Main Riff

Verse 2x

Main Riff

Chorus 2x:

	B	D	G	F#  A

e|------7-------10------3-------2---5----------------------------------------|
B|------7-------10------3-------2---5----------------------------------------|
G|------7-------10------3-------2---5----------------------------------------|
D|------9-------12------5-------4---7----------------------------------------|
A|------9-------12------5-------4---7----------------------------------------|
E|------7-------10------3-------2---5----------------------------------------|

Intersection:

e|--7-7--x-x---x-x-x---7-7--x-x---x-x-x---7-7--x-x---x-x-x---7---------------|
B|--7-7--x-x---x-x-x---7-7--x-x---x-x-x---7-7--x-x---x-x-x---7---------------|
G|--7-7--x-x---x-x-x---7-7--x-x---x-x-x---7-7--x-x---x-x-x---7---7-9-7-9b-9-7|
D|--9-9--x-x---x-x-x---9-9--x-x---x-x-x---9-9--x-x---x-x-x---9---------------|
A|--9-9--x-x---x-x-x---9-9--x-x---x-x-x---9-9--x-x---x-x-x---9---------------|
E|--7-7--x-x---x-x-x---7-7--x-x---x-x-x---7-7--x-x---x-x-x---7---------------|

Verse 2x

Chorus 4x

Bridge: (same chordprogression as chorus but just the root notes)

	B	D	G	F#   A

e|---------------------------------------------------------------------------|
B|---------------------------------------------------------------------------|
G|---------------------------------------------------------------------------|
D|---------------------------------------------------------------------------|
A|--------------5------------------------------------------------------------|
E|------7--------------3--------2---5----------------------------------------|

Chorus 4x


| /  slide up
| \  slide down
| h  hammer-on
| p  pull-off
| ~  vibrato
| +  harmonic
| x  Mute note
===============================================================================
Добавлено: 22.07.2013
Другие материалы по этой песне:
  • Аккорды и текст

Страница создана 22.07.2013
http://primanota.ru/the-black-box-revelation/mirror-of-imagination-chords.htm
Привет, Гость.
Предлагаем пройти революционный курс по гитаре.
Подарок от PrimaNota.Ru, забирай!