PrimaNota.ru - самый крупный в мире бесплатный архив песенных текстов, аккордов, табулатур и нот


The Black Box Revelation - Love Is On My Mind - таба, видео

Регистрация Запомнить меня
Войти через:  Facebook Google Twitter Vk Yandex Mail.ru

The Black Box Revelation - Love Is On My Mind - таба, видео

Печатать
Просмотров: 74
Уроки эстрадного вокала в Санкт-Петербурге
-------------------------------------------------------------------------------
		Love is on my mind - The Black Box Revelation
-------------------------------------------------------------------------------
Tabbed by: Stefan De Graef
Email: stefanneman@hotmail.com

Tuning: E standard (key of D)


The song is mostly based around a 12 bar D blues, it follows the D D G D A G D D
pattern throughout the whole song. For the tone he uses his regular Telecaster
with a fuzz and possibly an octave for the verse and chorus parts.

Intro: keep hitting these notes but bend the 12 on the G string a little more each time
so you eventually get a full unison bend:


e|------------------------------------------------------------------------------|
B|---10--10--10--10--10-------10--10--10--10--10--------------------------------|
G|---12--12b-12b-12b-12b------12b-12b-12b-12b-12b-------------------------------|
D|------------------------------------------------------------------------------|
A|------------------------------------------------------------------------------|
E|------------------------------------------------------------------------------|

e|------------------------------------------------------------------------------|
B|---10-----10----10----10----12b-12-10-------10--10--10--10--10----------------|
G|---12--12-10-12-10-12-10-12-12b-12-10-------12b-12b-12b-12b-12b---------------|
D|-------12----12----12----12---------------------------------------------------|
A|------------------------------------------------------------------------------|
E|------------------------------------------------------------------------------|

Verse: 2x

e|---------------------------------------------------------------------------|
B|---------------------------------------------------------------------------|
G|---7--7-7-x-7-X-7----------------------7--7-7-x-7-X-7----------------------|
D|---7--7-7-x-7-X-7-------5b-5-3---------7--7-7-x-7-X-7-------5b-5-3---------|
A|---5--5-5-x-5-X-5---3-5--------5-------5--5-5-x-5-X-5---3-5--------5-------|
E|---------------------------------------------------------------------------|

e|---3--3-3-X-3-X-3----------------------------------------------------------|
B|---3--3-3-X-3-X-3----------------------------------------------------------|
G|---3--3-3-X-3-X-3----------------------7--7-7-x-7-X-7----------------------|
D|---5--5-5-x-5-X-5-------5b-5-3---------7--7-7-x-7-X-7-------5b-5-3---------|
A|---5--5-5-x-5-X-5---3-5--------5-------5--5-5-x-5-X-5---3-5--------5-------|
E|---3--3-3-X-3-X-3----------------------------------------------------------|

e|---5--5-5-X-5-X-3--X-3--3-3-3----------------------------------------------|
B|---5--5-5-X-5-X-3--X-3--3-3-3----------------------------------------------|
G|---5--5-5-X-5-X-3--X-3--3-3-3----------7--7-7-x-7-X-7--7-7---5--5-5-5------|
D|---7--7-7-X-7-X-5--X-5--5-5-5----------7--7-7-x-7-X-7--7-7---5--3-3-3------|
A|---7--7-7-X-7-X-5--X-5--5-5-5----------5--5-5-x-5-X-5--5-5---3--3-3-3------|
E|---5--5-5-X-5-X-3--X-3--3-3-3----------------------------------------------|

Chorus: D D G D A G D D

e|---------------------------------------------------------------------------|
B|---------------------------------------------------------------------------|
G|---7--7-7-x--------7-X-7---------------7--7-7-x--------7-X-7---------------|
D|---7--7-7-x--------7-X-7---------------7--7-7-x--------7-X-7---------------|
A|---5--5-5-x--------5-X-5---------------5--5-5-x--------5-X-5---------------|
E|---------------------------------------------------------------------------|

e|---3--3-3-X--------3-X-3---------------------------------------------------|
B|---3--3-3-X--------3-X-3---------------------------------------------------|
G|---3--3-3-X--------3-X-3---------------7--7-7-x--------7-X-7---------------|
D|---5--5-5-X--------5-X-5---------------7--7-7-x--------7-X-7---------------|
A|---5--5-5-X--------5-X-5---------------5--5-5-x--------5-X-5---------------|
E|---3--3-3-X--------3-X-5---------------------------------------------------|

e|---5--5-5--5-5-5---3--3-3--3-3-3-------------------------------------------|
B|---5--5-5--5-5-5---3--3-3--3-3-3-------------------------------------------|
G|---5--5-5--5-5-5---3--3-3--3-3-3-------7--7-7-x-7-X-7--5--5-5-5------------|
D|---7--7-7--7-7-7---5--5-5--5-5-5-------7--7-7-x-7-X-7--5--5-5-5------------|
A|---7--7-7--7-7-7---5--5-5--5-5-5-------5--5-5-x-5-X-5--3--3-3-3------------|
E|---5--5-5--5-5-5---3--3-3--3-3-3-------------------------------------------|

Verse 2x

Chorus 2x

Intro

Solo: (played in Dm pentatonic)

e|---------------------------------------------------------------------------|
B|---10-12-10-12b-12-10---10-12-10-12b-12-10---10----10----10----10----10-12-|
G|---10-12-10-12b-12-10---10-12-10-12b-12-10---10-12-10-12-10-12-10-12-10-12-|
D|------------------------------------------------12----12----12----12-------|
A|---------------------------------------------------------------------------|
E|---------------------------------------------------------------------------|

e|---------10---------------10-------------------10--------------------------|
B|------10----13p10------10----13p10-13p10-----10----13p10-13p10-------------|
G|---12b--------------12b-------------------12b------------------------------|
D|---------------------------------------------------------------------------|
A|---------------------------------------------------------------------------|
E|---------------------------------------------------------------------------|

e|---------------------------------------------------------------------------|
B|--------10----10----10-12b-12-10-----10-12b-12-10--------10----10----------|
G|--12-12-10-12-10-12-10-12b-12-10--12-10-12b-12-10--12-12-10-12-10-12-12----|
D|--12-12----12----12---------------12---------------12-12----12----12-12----|
A|---------------------------------------------------------------------------|
E|---------------------------------------------------------------------------|

e|---------------10--------------------10--------------------10--------------|
B|--10-12-----10----13p10-13p10-----10----13p10-13p10-----10-----13p10-13p10-|
G|--10-12--12b-------------------12b-------------------12b-------------------|
D|---------------------------------------------------------------------------|
A|---------------------------------------------------------------------------|
E|---------------------------------------------------------------------------|

e|---------------------------------------------------------------------------|
B|--------10----10----10-12---10--10b-10b-10b-10b------10--10b-10b-10b-10b---|
G|--12-12-10-12-10-12-10-12---12--12--12--12--12-------12--12--12--12--12----|
D|--12-12----12----12--------------------------------------------------------|
A|---------------------------------------------------------------------------|
E|---------------------------------------------------------------------------|

e|-------------------------------------------14-14--14--14-------------------|
B|---10--10--10--10--10--10--10--10--10-----14--14--14--14-------------------|
G|---12--12b-12b-12b-12b-12b-12b-12b-12b-12b----12b-12b-12b------------------|
D|---------------------------------------------------------------------------|
A|---------------------------------------------------------------------------|
E|---------------------------------------------------------------------------|

As you can see and hear the ending part of the solo is the intro but with a
little variation at the end.

| /  slide up
| \  slide down
| h  hammer-on
| p  pull-off
| ~  vibrato
| +  harmonic
| x  Mute note
===============================================================================
Добавлено: 04.07.2013
Другие материалы по этой песне:
  • Аккорды и текст

Страница создана 04.07.2013
http://primanota.ru/the-black-box-revelation/love-is-on-my-mind-chords.htm
Привет, Гость.
Предлагаем пройти революционный курс по гитаре.
Подарок от PrimaNota.Ru, забирай!