PrimaNota.ru - самый крупный в мире бесплатный архив песенных текстов, аккордов, табулатур и нот


The Black Box Revelation - Kill For Peace - таба, видео

Регистрация Запомнить меня
Войти через:  Facebook Google Twitter Vk Yandex Mail.ru

The Black Box Revelation - Kill For Peace - таба, видео

Печатать
Просмотров: 77
                                Kill For Peace (& Peace Will Die)                                   


                                                                        The Black Box Revelation
Guitar 1



        B5                                                   G5               
     E  Q    E  Q.     E     Q    E  E  Q    Q         E  E  Q    E  Q    E   
E||-----------------------|-------------------------|------------------------|
B||-----------------------|-------------------------|------------------------|
G||-------------7------7--|------------------9br----|--7---------------------|
D||-----9----9------------|--9----9--9--------------|--------5----5-------5--|
A||-----9----9------------|--9----9--9--------------|--------5----5-------5--|
E||-----7----7------------|--7----7--7--------------|--------3----3-------3--|


  A5                          B5                                                   G5               
  Q    E  Q    E  E  E     E  Q    E  Q.     E     Q    E  E  Q    Q         E  E  Q    E  Q    E   
------------------------|-----------------------|-------------------------|------------------------|
------------------------|-----------------------|-------------------------|------------------------|
---------------9--9--9--|-------------7------7--|------------------9br----|--7---------------------|
--7----7----------------|--7--9----9------------|--9----9--9--------------|--------5----5-------5--|
--7----7----------------|-----9----9------------|--9----9--9--------------|--------5----5-------5--|
--5----5----------------|-----7----7------------|--7----7--7--------------|--------3----3-------3--|


  A5                         B5                                                  
                             PM PM PM PM PM PM PM PM    PM PM PM PM PM PM PM     
  Q    E  Q    E  E  E       E  E  E  E  E  E  E  E     E  E  E  E  E  E  E  E   
------------------------||---------------------------|--------------------------|
------------------------||---------------------------|--------------------------|
---------------9--9--9--||*--------------------------|--------------------------|
--7----7----------------||*--9--9--9--9--9--9--9--9--|--9--9--9--9--9--9--9--9--|
--7----7----------------||---9--9--9--9--9--9--9--9--|--9--9--9--9--9--9--9--9--|
--5----5----------------||---7--7--7--7--7--7--7--7--|--7--7--7--7--7--7--7--7--|


  G5                         A5                              B5                 
        PM PM PM PM PM PM    PM PM PM PM PM PM                                  
  E  E  E  E  E  E  E  E     E  E  E  E  E  E  E  E       E  Q    E  Q.     E   
--------------------------|---------------------------||-----------------------|
--------------------------|---------------------------||-----------------------|
--------------------------|--------------------------*||-------------7------7--|
--5--5--5--5--5--5--5--5--|--7--7--7--7--7--7--7--7--*||-----9----9------------|
--5--5--5--5--5--5--5--5--|--7--7--7--7--7--7--7--7---||-----9----9------------|
--3--3--3--3--3--3--3--3--|--5--5--5--5--5--5--5--5---||-----7----7------------|


                                  G5                 A5                          B5                 
  Q    E  E  Q    Q         E  E  Q    E  Q    E     Q    E  Q    E  E  E     E  Q    E  Q.     E   
-------------------------|------------------------|------------------------|-----------------------|
-------------------------|------------------------|------------------------|-----------------------|
------------------9br----|--7---------------------|---------------9--9--9--|-------------7------7--|
--9----9--9--------------|--------5----5-------5--|--7----7----------------|--7--9----9------------|
--9----9--9--------------|--------5----5-------5--|--7----7----------------|-----9----9------------|
--7----7--7--------------|--------3----3-------3--|--5----5----------------|-----7----7------------|


                                  G5                 A5                     
  Q    E  E  Q    Q         E  E  Q    E  Q    E     Q    E  Q    E  E  E   
-------------------------|------------------------|------------------------|
-------------------------|------------------------|------------------------|
------------------9br----|--7---------------------|---------------9--9--9--|
--9----9--9--------------|--------5----5-------5--|--7----7----------------|
--9----9--9--------------|--------5----5-------5--|--7----7----------------|
--7----7--7--------------|--------3----3-------3--|--5----5----------------|


    B5                                                    G5                       
    PM PM PM PM PM PM PM PM    PM PM PM PM PM PM PM             PM PM PM PM PM PM  
    E  E  E  E  E  E  E  E     E  E  E  E  E  E  E  E     E  E  E  E  E  E  E  E   
|---------------------------|--------------------------|--------------------------|
|---------------------------|--------------------------|--------------------------|
|*--------------------------|--------------------------|--------------------------|
|*--9--9--9--9--9--9--9--9--|--9--9--9--9--9--9--9--9--|--5--5--5--5--5--5--5--5--|
|---9--9--9--9--9--9--9--9--|--9--9--9--9--9--9--9--9--|--5--5--5--5--5--5--5--5--|
|---7--7--7--7--7--7--7--7--|--7--7--7--7--7--7--7--7--|--3--3--3--3--3--3--3--3--|


  A5                            B5                         E5                       
  PM PM PM PM PM PM                                                                 
  E  E  E  E  E  E  E  E        E  E  E  E  E  E  E  E     E  E  E  E  E  E  E  E   
---------------------------||---------------------------|--------------------------|
---------------------------||---------------------------|--------------------------|
--------------------------*||*--------------------------|--------------------------|
--7--7--7--7--7--7--7--7--*||*--9--9--9--9--9--9--9--9--|--2--2--2--2--2--2--2--2--|
--7--7--7--7--7--7--7--7---||---9--9--9--9--9--9--9--9--|--2--2--2--2--2--2--2--2--|
--5--5--5--5--5--5--5--5---||---7--7--7--7--7--7--7--7--|--0--0--0--0--0--0--0--0--|


  G5                         A5                           B5                                    
  E  E  E  E  E  E  E  E     E  E  E  E  E  E  E  E       W                   W                 
--------------------------|---------------------------||-------------------|-------------------|
--------------------------|---------------------------||-------------------|-------------------|
--------------------------|--------------------------*||-------------------|-------------------|
--5--5--5--5--5--5--5--5--|--7--7--7--7--7--7--7--7--*||--9----------------|--L----------------|
--5--5--5--5--5--5--5--5--|--7--7--7--7--7--7--7--7---||--9----------------|--L----------------|
--3--3--3--3--3--3--3--3--|--5--5--5--5--5--5--5--5---||--7----------------|--L----------------|


    B5                                                    G5                       
    PM PM PM PM PM PM PM PM    PM PM PM PM PM PM PM             PM PM PM PM PM PM  
    E  E  E  E  E  E  E  E     E  E  E  E  E  E  E  E     E  E  E  E  E  E  E  E   
|---------------------------|--------------------------|--------------------------|
|---------------------------|--------------------------|--------------------------|
|*--------------------------|--------------------------|--------------------------|
|*--9--9--9--9--9--9--9--9--|--9--9--9--9--9--9--9--9--|--5--5--5--5--5--5--5--5--|
|---9--9--9--9--9--9--9--9--|--9--9--9--9--9--9--9--9--|--5--5--5--5--5--5--5--5--|
|---7--7--7--7--7--7--7--7--|--7--7--7--7--7--7--7--7--|--3--3--3--3--3--3--3--3--|


  A5                            B5                         E5                       
  PM PM PM PM PM PM                                                                 
  E  E  E  E  E  E  E  E        E  E  E  E  E  E  E  E     E  E  E  E  E  E  E  E   
---------------------------||---------------------------|--------------------------|
---------------------------||---------------------------|--------------------------|
--------------------------*||*--------------------------|--------------------------|
--7--7--7--7--7--7--7--7--*||*--9--9--9--9--9--9--9--9--|--2--2--2--2--2--2--2--2--|
--7--7--7--7--7--7--7--7---||---9--9--9--9--9--9--9--9--|--2--2--2--2--2--2--2--2--|
--5--5--5--5--5--5--5--5---||---7--7--7--7--7--7--7--7--|--0--0--0--0--0--0--0--0--|


  G5                         A5                            B5                       
  E  E  E  E  E  E  E  E     E  E  E  E  E  E  E  E   4x   E  E  E  E  E  E  E  E   
--------------------------|---------------------------||---------------------------|
--------------------------|---------------------------||---------------------------|
--------------------------|--------------------------*||*--------------------------|
--5--5--5--5--5--5--5--5--|--7--7--7--7--7--7--7--7--*||*--9--9--9--9--9--9--9--9--|
--5--5--5--5--5--5--5--5--|--7--7--7--7--7--7--7--7---||---9--9--9--9--9--9--9--9--|
--3--3--3--3--3--3--3--3--|--5--5--5--5--5--5--5--5---||---7--7--7--7--7--7--7--7--|


                             G5                         A5                         
  E  E  E  E  E  E  E  E     E  E  E  E  E  E  E  E     E  E  E  E  E  E  E  E     
--------------------------|--------------------------|---------------------------||
--------------------------|--------------------------|---------------------------||
--------------------------|--------------------------|--------------------------*||
--9--9--9--9--9--9--9--9--|--5--5--5--5--5--5--5--5--|--7--7--7--7--7--7--7--7--*||
--9--9--9--9--9--9--9--9--|--5--5--5--5--5--5--5--5--|--7--7--7--7--7--7--7--7---||
--7--7--7--7--7--7--7--7--|--3--3--3--3--3--3--3--3--|--5--5--5--5--5--5--5--5---||


                          B5                                     
  E  E  H.                W                   W                  
----------------------||-------------------|-------------------||
----------------------||-------------------|-------------------||
---------------------*||-------------------|-------------------||
--7------------------*||--9----------------|--L----------------||
--7-------------------||--9----------------|--L----------------||
--5-------------------||--7----------------|--L----------------||
Добавлено: 26.06.2013
Другие материалы по этой песне:
  • Аккорды и текст

Страница создана 26.06.2013
http://primanota.ru/the-black-box-revelation/kill-for-peace-chords.htm
Привет, Гость.
Предлагаем пройти революционный курс по гитаре.
Подарок от PrimaNota.Ru, забирай!