PrimaNota.ru - самый крупный в мире бесплатный архив песенных текстов, аккордов, табулатур и нот


The Black Box Revelation - I Think I Like You - таба, видео

Регистрация Запомнить меня
Войти через:  Facebook Google Twitter Vk Yandex Mail.ru

The Black Box Revelation - I Think I Like You - таба, видео

Печатать
Просмотров: 94
The Blackbox Revelation - I think I Like You

De toekomst van de belgische rock met hun grote (alternatieve) doorbraak!

Door Tim Wauters

the G5* in chorus refers to a G5 chord with the special "stopping" sound, listen to the 
and you'll understand

http://www.youtube.com/watch?v=nZzknLiIFho


Main Riff / Intro

e-------------------------------------------------------------------|
B-----5-------------------------------------------------------------|
G--7^---7--5~-----------------5---7-5--5--5-------------------------|
D--------------7-(X)-5-/-7--0------------7----7-x-5-/-7-0-7-7-7-----|
A--------------------5-/-7--0---------------------5-/-7-0-7-7-7-----|
E--------------------3-/-5--0---------------------3-/-5-0-5-5-5-----|


Riff 2 / Strofe

A5                        G5
Did you ever see a light inside your mind

        C5                        A5
did you ever stop to look while it makes you blind

A5                        G5
I should feel the love from the skin to my bones

A5                   A5
It's a feeling that's making me high!


Riff 3 / Refrein

A5                    C5
There's something and it makes me smile

G5*                A5
        I think I like you

A5                    C5
there's something burning in my mind, yeah


G5*                A5
        I think I like you

Bridge

A
Muted Riff
C
G
A


Outro

e---------------------------------------------------------------------|
B-----5----------------------(5~)--(5~)-------------------------------|
G--7^---7--5~-----------------5~--7-5~--5-----5-----------------------|
D--------------7-(X)-5-/-7--0--------------7-----7-7------------------|
A--------------------5-/-7--0-----------------------------------------|
E--------------------3-/-5--0-----------------------------------------|
Добавлено: 20.11.2013
Другие материалы по этой песне:
  • Аккорды и текст

Страница создана 14.11.2013
http://primanota.ru/the-black-box-revelation/i-think-i-like-you-chords.htm
Привет, Гость.
Предлагаем пройти революционный курс по гитаре.
Подарок от PrimaNota.Ru, забирай!