PrimaNota.ru - самый крупный в мире бесплатный архив песенных текстов, аккордов, табулатур и нот


The Black Box Revelation - High On A Wire - таба, видео

Регистрация Запомнить меня
Войти через:  Facebook Google Twitter Vk Yandex Mail.ru

The Black Box Revelation - High On A Wire - таба, видео

Печатать
Просмотров: 125
-------------------------------------------------------------------------------
		High On A Wire - The Black Box Revelation
-------------------------------------------------------------------------------
Tabbed by: Stefan De Graef
Email: stefanneman@hotmail.com

Tuning: Eb standard (Eb Ab Db Gb Bb Eb)


Guitar tone with a fuzz as usual


Intro: 2x

e|---------------------------------------------------------------------------|
B|---------------------------------------------------------------------------|
G|---------------------------------------------------------------------------|
D|----2---2---2---2---2---2----------2---2---2---2---2---2-------------------|
A|---------------------------------------------------------------------------|
E|--0---0---0---0---0---0---3b-3b--0---0---0---0---0---0---3b-3b-------------|

Verse: 3x

e|---------------------------------------------------------------------------|
B|----3-0--------------------------3-0---------------------------------------|
G|----0-0-----0--------------------0-0-----0---------------------------------|
D|----2-2-----2-----2p0-0----------2-2-----2-----2p0-0-----------------------|
A|----2-2-----2-----------2p0-0----2-2-----2-----------2p0-0-----------------|
E|--0------3b-0--3b-------------0-------3b-0--3b-----------------------------|

Chorus: 2x

Em Cm Am Gm

e|------8----5---3------------------------------------------------------------------|
B|------8----5---3------------------------------------------------------------------|
G|------8----5---3------------------------------------------------------------------|
D|--2---10---7---5------------------------------------------------------------------|
A|--2---10---7---5------------------------------------------------------------------|
E|--0---8----5---3------------------------------------------------------------------|

Verse: 4x (1 time without vocals, then 3 with)

Chorus: 2x

Keyboard solo backing:

2x
e|---------------------------------------------------------------------------|
B|---------------------------------------------------------------------------|
G|---------------------------------------------------------------------------|
D|----2---2---2---2---2---2----------2---2---2---2---2---2-------------------|
A|---------------------------------------------------------------------------|
E|--0---0---0---0---0---0---3b-3b--0---0---0---0---0---0---3b-3b-------------|

2x
e|-------------------------------------------------------------------------------|
B|-------------------------------------------------------------------------------|
G|----2---2---2---2---2---2----------2---2---2---2---2---2-----------------------|
D|-------------------------------------------------------------------------------|
A|--0---0---0---0---0---0---3b-3b--0---0---0---0---0---0---3b-3b---------------|
E|-------------------------------------------------------------------------------|

2x
e|---------------------------------------------------------------------------|
B|---------------------------------------------------------------------------|
G|---------------------------------------------------------------------------|
D|----2---2---2---2---2---2----------2---2---2---2---2---2-------------------|
A|---------------------------------------------------------------------------|
E|--0---0---0---0---0---0---3b-3b--0---0---0---0---0---0---3b-3b-------------|

Verse: 2x (without vocals)

Chorus: 4x

| /  slide up
| \  slide down
| h  hammer-on
| p  pull-off
| ~  vibrato
| +  harmonic
| x  Mute note
===============================================================================
Добавлено: 09.10.2013
Другие материалы по этой песне:
  • Аккорды и текст

Страница создана 09.10.2013
http://primanota.ru/the-black-box-revelation/high-on-a-wire-chords.htm
Привет, Гость.
Предлагаем пройти революционный курс по гитаре.
Подарок от PrimaNota.Ru, забирай!