PrimaNota.ru - самый крупный в мире бесплатный архив песенных текстов, аккордов, табулатур и нот


The Black Belles - Ms Black Boots - таба, видео

Регистрация Запомнить меня
Войти через:  Facebook Google Twitter Vk Yandex Mail.ru

The Black Belles - Ms Black Boots - таба, видео

Печатать
Просмотров: 100
-----------------------------------------------------------------------------
                       Ms. Black Boots - The Black Belles
-----------------------------------------------------------------------------
Tabbed by: Dylan Goffic
Email: break@dopefiends.net

Tuning: EADGBe

e|-------------------------------------------------|
B|-------------------------------------------------|
G|--------10-9---------10-13---------10-9----------|
D|-0-6-8--10-9--0-6-8--10-13--0-6-8--10-9--0-6-8-8-|
A|-0-6-8--8--7--0-6-8--8--11--0-6-8--8--7--0-6-8-8-|
E|-0-4-6--------0-4-6---------0-4-6--------0-4-6-6-|

e|--------------------------------------------------|
B|--------------------------------------------------|
G|--------------------------------------------------|
D|--------------------------------------------------|
A|------8-7~~~-----8-7~~~-----8-7~~~--4-3-----------|
E|-4-6--------4-6--------4-6--------4-----4-5-6-1\4-|

e|-----------------------------------------|
B|-----------------------------------------|
G|-----------------------------------------|
D|-------------------9~/0------------------|
A|------8-7~~~-----8-7~/0------8-7~~~--8-8-|
E|-4-6--------4-6---------4-6--------4-6-6-|

e|----------------------------------------|
B|----------------------------------------|
G|----------------------------------------|
D|----------------------------------------|
A|------8-7~~~-----8-7~~~-----8-7~~~------|
E|-4-6--------4-6--------4-6--------4-6-6-|

e|----------------------------------------|
B|----------------------------------------|
G|----------------------------------------|
D|----------------------------------------|
A|------8-7~~~-----8-7~~~-----9-8~~~------|
E|-4-6--------4-6--------4-6--------4-6-6-|

e|-------------------------------------------------------------------|
B|-------------------------------------------------------------------|
G|-10-9-8----10-9-8--------------------------------------8^v-7-6-----|
D|--------11--------11-11-10-9-8-11-10-9-8-8--8--6-8^v-6-----------8-|
A|-------------------------------------------------------------------|
E|-------------------------------------------------------------------|

e|---------------------------------------------------------------|
B|---------------------------------------------------------------|
G|-10-9-8----10-9-8------------------------------------------6---|
D|--------11--------11-11-10-9-8-11-10-9-8-8--8~-6-8~~-6-8~~---8~|
A|---------------------------------------------------------------|
E|---------------------------------------------------------------|

e|---------------------------------------------------------------|
B|---------------------------------------------------------------|
G|-10-9-8----10-9-8------------------------------7-----------6---|
D|--------11--------11-11-10-9-8-11-10-9-8-8--8~---8~~-6-8~~---8~|
A|---------------------------------------------------------------|
E|---------------------------------------------------------------|

e|----------------------------------|
B|----------------------------------|
G|-10-9-8----10-9-8----10-9-8-------|
D|--------11--------11--------11-11-|
A|----------------------------------|
E|----------------------------------|

e|------------------------------------------------|
B|------------------------------------------------|
G|------------------------------------------------|
D|-8-8----------8---8----------8-8----------8---8-|
A|-8-8----------8---8----------8-8----------8---8-|
E|-6-6----------6---6----------6-6----------6---6-|

e|---------------------------------------------|
B|---------------------------------------------|
G|---------------------------------------------|
D|---------------------------------------------|
A|-----8-7~~~-----8-7~~~-----8-7~~~-----8-7~~~-|
E|-4-6--------4-6--------4-6--------4-6--------|x2

e|--------------------------------------------------------------------|
B|---------------------------------------------------------------9----|
G|-10-9-8----10-9-8----------------------------------6---8\10-10---10-|
D|--------11--------11-11-10-9-8-11-10-9-8-8-8-6h7h8---8--------------|
A|--------------------------------------------------------------------|
E|--------------------------------------------------------------------|

e|----------------------------------|
B|----------------------------------|
G|-10-9-8----10-9-8----10-9-8-------|
D|--------11--------11--------11-11-|
A|----------------------------------|
E|----------------------------------|

e|-------------------------------------------------|
B|-------------------------------------------------|
G|--------10-9---------10-13---------10-9----------|
D|-0-6-8--10-9--0-6-8--10-13--0-6-8--10-9--0-6-8-8-|
A|-0-6-8--8--7--0-6-8--8--11--0-6-8--8--7--0-6-8-8-|
E|-0-4-6--------0-4-6---------0-4-6--------0-4-6-6-|

e|------------------------------------------------|
B|------------------------------------------------|
G|------------------------------------------------|
D|----------------------6-8~~~----8~~~~~~----8~~~-|
A|----------------6-6-8-------8~~~-------8-8------|
E|-6~~~-0-6-6-9-9---------------------------------|

e|------------------------------------------------|
B|------------------------------------------------|
G|--------10-9---------10-9---------10-9----------|
D|-0-6-8--10-9--0-6-8--10-9--0-6-8--10-9--0-6-8-8-|
A|-0-6-8--8--7--0-6-8--8--7--0-6-8--8--7--0-6-8-8-|
E|-0-4-6--------0-4-6--------0-4-6--------0-4-6-6-|x2

e|---------------------------------------------------------------|
B|---------------------------------------------------------------|
G|-10-9-8----10-9-8------------------------------7-----------6---|
D|--------11--------11-11-10-9-8-11-10-9-8-8--8~---8~~-6-8~~---8~|
A|---------------------------------------------------------------|
E|---------------------------------------------------------------|

e|---------------------------------------------------------------|
B|---------------------------------------------------------------|
G|-10-9-8----10-9-8------------------------------------------6---|
D|--------11--------11-11-10-9-8-11-10-9-8-8--8~-6-8~~-6-8~~---8~|
A|---------------------------------------------------------------|
E|---------------------------------------------------------------|

e|-------------------------------------------------------------------------------------|
B|-------------------------------------------------------------------------------------|
G|-10-9-8----10-9-8---------------------------10-9---------10-13---------10-9----------|
D|--------11--------11-11-10-9-8-11-10-9-8-8--10-9--0-6-8--10-13--0-6-8--10-9--0-6-8-8-|
A|-----------------------------------------8--8--7--0-6-8--8--11--0-6-8--8--7--0-6-8-8-|
E|-----------------------------------------6--------0-4-6---------0-4-6--------0-4-6-6-|
Добавлено: 27.08.2013
Другие материалы по этой песне:
  • Аккорды и текст

Страница создана 27.08.2013
http://primanota.ru/the-black-belles/ms-black-boots-chords.htm
Привет, Гость.
Предлагаем пройти революционный курс по гитаре.
Подарок от PrimaNota.Ru, забирай!