PrimaNota.ru - самый крупный в мире бесплатный архив песенных текстов, аккордов, табулатур и нот


The Black Angels - True Believers - таба, видео

Регистрация Запомнить меня
Войти через:  Facebook Google Twitter Vk Yandex Mail.ru

The Black Angels - True Believers - таба, видео

Печатать
Просмотров: 109
Black Angels
True Believers
Tuning: Double drop D

Intro (clean)

d|-0-0-0-0 0-0-000-0--------------|
B|-3-3-3-3-3-3-333-3--------------|
G|-2-2-2-2-2-2-222-2--------------|
D|-0-0-0-0-0-0-000-0--------------|
A|--------------------------------|
D|--------------------------------|

d|-0-0-0-0 0-0-000-0--------------|
B|-3-3-3-3-3-3-333-3--------------|
G|-2-2-2-2-2-2-223p2--------------|
D|-0-0-0-0-0-0-00--0--------------| x2
A|--------------------------------|
D|--------------------------------|

d|-0-0-0-0 0-0-000-000----0--000-----0--000-0--0-0-- 0--0-0--|
B|-3-3-3-3-3-3-222-333----3--333-----2--333-3--2h3-2-2--3-3--|
G|-2-2-2-2-2-2-222-333----2--222-----3--222-2--2-2-3p2--2-2--|
D|-0-0-0-0-0-0-000-000----3--000-----0--000-0--0-0-0-0--0-0--|
A|----------------------0---------0--------------------------|
D|-----------------------------------------------------------|

Verse
D
In the middle of the holding out
Nobody will be dropped out
Except fake gods whose faux pas
Are offsetting bets
Well who knows yeah who knows
Which birds will be left
To sing and sing and sing for me?
Well who knows which birds will be left for me?

Distortion

d|-0------------------------222--333--333--222--000--0-0----|
B|-3-333--333--222-333--333-333--333--333--333--333--3-3----|
G|-2-222--222--222-222--222-222--222--222--222--222--3p2----|
D|-0-000--000--000-000--000---------------------000----0----|
A|-0--------------------------------------------------------|
D|-0--------------------------------------------------------|

Just keep playing D in this part:

Hare came to me in the month of August
Mary loves Sally the most
Maybe Buddha is the true son of God's kiss
Maybe you'll never know

he sometimes adds a lick that goes like:
d|---------------|
B|---3-2---------|
G|-------3-2-----|
D|---------------|
A|---------------|
D|---------------|

I also like to strum all the strings when he says "woohoo", it adds emphasis

D
"Woohoo," they sang as they crossed the river
"Woohoo," they said as they prayed to Jesus
"Woohoo," the walls fell on Jericho
Well who knows, yeah who knows
Which birds will be left
To sing and sing and sing for me?
Yeah who knows which birds will be left for me?
Well no one knows

d|--------------------------------|
B|-3--1----------3---1------------|
G|-------2---------------2b-------| x2
D|--------------------------------|
A|--------------------------------|
D|--------------------------------|


D
"Woohoo," they yelled when they came to Mecca
Beat them as they go
"Woohoo," they said as they read the Vedas
                         D#   D
Leave them, let them go

C  G  C
      Spinning Sufis on their heads
Are hearing tones of wisdom
G
Devilish women warning
Men of their actions
                 C
Now bring them to you and me
Добавлено: 21.10.2013
Другие материалы по этой песне:
  • Аккорды и текст

Страница создана 21.10.2013
http://primanota.ru/the-black-angels/true-believers-chords.htm
Привет, Гость.
Предлагаем пройти революционный курс по гитаре.
Подарок от PrimaNota.Ru, забирай!