PrimaNota.ru - самый крупный в мире бесплатный архив песенных текстов, аккордов, табулатур и нот


The Birthday Massacre - Horror Show - текст песни, бас-таба, видео

Регистрация Запомнить меня
Войти через:  Facebook Google Twitter Vk Yandex Mail.ru

The Birthday Massacre - Horror Show - текст песни, бас-таба, видео

Печатать
Просмотров: 155
-------------------------------------------------------------------------------
			     Horror Show - The Birthday Massacre
-------------------------------------------------------------------------------

Tabbed By : Necrotic
e-mail: joelschwallier@gmail.com

Tuning: Drop D

Intro
G|----------------------------------------------------------------|
D|----------------------------------------------------------------|
A|3-3-3-3-2-2-2-2-----------------3-3-3-3-2-2-2-2-2-2-2-2-2-2-2-2-|
D|----------------5-5-5-5-5-5-5-5---------------------------------|

G|----------------------------------------------------------------|
D|----------------------------------------------------------------|
A|3-3-3-3-5-5-5-5-0-0-0-0-0-0-0-0-3-3-3-3-------------------------|
D|----------------------------------------5-5-5-5-4-4-4-4-4-4-4-4-|

Verse
G|--------------------------------|
D|--------------------------------|
A|00000000--------3333333333333333|
D|--------55555555----------------|x2

G|----------------------------------------------------------------|
D|----------------------------------------------------------------|
A|00000000------------------------00000000--------3333333333333333|
D|--------555555554444444444444444--------55555555----------------|

Pre-Chorus
G|-----------------------------------------------------------------|
D|-----------------------------------------------------------------|
A|00000000000000002222222222222222---------------------------------|
D|--------------------------------55555555555555550000000000000000-|

G|-----------------------------------------------------------------|
D|-----------------------------------------------------------------|
A|00000000000000003333333333333333---------------------------------|
D|--------------------------------55555555555555550000000000000000-|

G|-----------------------------------------------------------------|
D|-----------------------------------------------------------------|
A|00000000000000005555555555555555---------------------------------|
D|--------------------------------55555555555555550000000000000000-|

G|-----------------------------------------------------------------|
D|-----------------------------------------------------------------|
A|00000000000000002222222222222222---------------------------------|
D|--------------------------------55555555555555550000000000000000-|

Chorus
G|----------------------------------------------------------------|
D|----------------------------------------------------------------|
A|------------------------------------------------3-3-3-3-3-3-3-3-|
D|7-7-7-7-7-5-5-5-4-4-4-4-4-4-4-4-7-7-7-7-7-5-5-5-----------------|

G|----------------------------------------------------------------|
D|----------------------------------------------------------------|
A|------------------------------------------------5-5-5-5-5-------|
D|7-7-7-7-7-5-5-5-4-4-4-4-4-4-4-4-7-7-7-7-7-5-5-5-------------7/1-|

Verse
G|--------------------------------|
D|--------------------------------|
A|00000000--------3333333333333333|
D|--------55555555----------------|x2

G|----------------------------------------------------------------|
D|----------------------------------------------------------------|
A|00000000------------------------00000000--------3333333333333333|
D|--------555555554444444444444444--------55555555----------------|

Pre-Chorus
G|-----------------------------------------------------------------|
D|-----------------------------------------------------------------|
A|00000000000000002222222222222222---------------------------------|
D|--------------------------------55555555555555550000000000000000-|

G|-----------------------------------------------------------------|
D|-----------------------------------------------------------------|
A|00000000000000003333333333333333---------------------------------|
D|--------------------------------55555555555555550000000000000000-|

G|-----------------------------------------------------------------|
D|-----------------------------------------------------------------|
A|00000000000000005555555555555555---------------------------------|
D|--------------------------------55555555555555550000000000000000-|

G|-----------------------------------------------------------------|
D|-----------------------------------------------------------------|
A|00000000000000002222222222222222---------------------------------|
D|--------------------------------55555555555555550000000000000000-|

Rest 8 measures while bass synth plays
Bridge
G|-----------------------------------------------------------------|
D|-----------------------------------------------------------------|
A|----------------2222222222222222---------------------------------|
D|5555555555555555----------------22222222222222225555555555555555-|x2

Pre-Chorus
G|-----------------------------------------------------------------|
D|-----------------------------------------------------------------|
A|00000000000000002222222222222222---------------------------------|
D|--------------------------------55555555555555550000000000000000-|

G|-----------------------------------------------------------------|
D|-----------------------------------------------------------------|
A|00000000000000003333333333333333---------------------------------|
D|--------------------------------55555555555555550000000000000000-|

G|-----------------------------------------------------------------|
D|-----------------------------------------------------------------|
A|00000000000000005555555555555555---------------------------------|
D|--------------------------------55555555555555550000000000000000-|

G|-----------------------------------------------------------------|
D|-----------------------------------------------------------------|
A|00000000000000002222222222222222---------------------------------|
D|--------------------------------55555555555555550000000000000000-|

Chorus
G|----------------------------------------------------------------|
D|----------------------------------------------------------------|
A|------------------------------------------------3-3-3-3-3-3-3-3-|
D|7-7-7-7-7-5-5-5-4-4-4-4-4-4-4-4-7-7-7-7-7-5-5-5-----------------|

G|----------------------------------------------------------------|
D|----------------------------------------------------------------|
A|------------------------------------------------5-5-5-5-5-------|
D|7-7-7-7-7-5-5-5-4-4-4-4-4-4-4-4-7-7-7-7-7-5-5-5-------------7/1-|

G|----------------------------------------------------------------|
D|----------------------------------------------------------------|
A|------------------------------------------------3-3-3-3-3-3-3-3-|
D|7-7-7-7-7-5-5-5-4-4-4-4-4-4-4-4-7-7-7-7-7-5-5-5-----------------|

G|----------------------------------------------------------------|
D|----------------------------------------------------------------|
A|------------------------------------------------5-5-5-5-5-------|
D|7-7-7-7-7-5-5-5-4-4-4-4-4-4-4-4-7-7-7-7-7-5-5-5-------------7/1-|

| /  slide up
| \  slide down
| h  hammer-on
| p  pull-off
| ~  vibrato
| +  harmonic
| x  Mute note
===============================================================================
Добавлено: 07.05.2012
Другие материалы по этой песне:

Страница создана 14.03.2012
http://primanota.ru/the-birthday-massacre/horror-show-chords.htm
Привет, Гость.
Предлагаем пройти революционный курс по гитаре.
Подарок от PrimaNota.Ru, забирай!