PrimaNota.ru - самый крупный в мире бесплатный архив песенных текстов, аккордов, табулатур и нот


The Bird And The Bee - Youre A Cad - бас-таба, видео

Регистрация Запомнить меня
Войти через:  Facebook Google Twitter Vk Yandex Mail.ru

The Bird And The Bee - Youre A Cad - бас-таба, видео

Печатать
Просмотров: 69
Bass comes in at 0:30

Intro

G|--------|
D|--------|
A|-----1~-|
E|--2-----|

Chorus

G|--------------------------------------------------|
D|-------------------------------------------420----| 
A|-2-----2----24-5-----5--42--------------4------4--|
E|----2-----2-------5--------5--0--55432------------|

Chorus Ending

G|------------------------|
D|-------------0--3~------| (sometimes the last 2 or 3 notes aren't played)
A|--2-----2--22-------2~--|
E|-----2------------------|

Verse 1

G|---------------------------------------------------|
D|--4-----3--------------------------------11-9-7-6--|
A|-----4-----432-----2-------------------------------|
E|----------------2-----245--0--5-57-9--4------------|

Verse 2

G|---------------------------------------------------|
D|--4-----3--------------------------------11-9-7-6--|
A|-----4-----432-----2-------------------------------|
E|----------------2-----245--0--5457-9--4------------|

Intro
Chorus x2
Chorus Ending
Verse 1 x2
Intro
Chorus x3
Chorus Ending without the last 3 notes
Verse 2 x2
Intro
Chorus x3
Chorus Ending without the last 2 notes
Добавлено: 07.12.2015
Вам также может быть интересно:
Другие материалы по этой песне:
  • Аккорды и текст

Страница создана 07.12.2015
http://primanota.ru/the-bird-and-the-bee/youre-a-cad-chords.htm
Привет, Гость.
Предлагаем пройти революционный курс по гитаре.
Подарок от PrimaNota.Ru, забирай!