PrimaNota.ru - самый крупный в мире бесплатный архив песенных текстов, аккордов, табулатур и нот


The Beards - Growing A Beard - бас-таба, видео

Регистрация Запомнить меня
Войти через:  Facebook Google Twitter Vk Yandex Mail.ru

The Beards - Growing A Beard - бас-таба, видео

Печатать
Просмотров: 81
-------------------------------------------------------------------------------
                             Growing a Beard - The Beards
-------------------------------------------------------------------------------
Please, leave a comment or any corrections. Thank you.

Tabbed by: MikeRyuk
E-mail: maadc96@gmail.com

Tuning: Standard

INTRO                x11    
G|---Slap----9--------|
D|---Slap------9-7----|
A|-7-Slap--7-------5/-|
E|---Slap-------------|
You can slap all string after the first 7 note, to make a nice rhythm

VERSE 1 - 0:21
G|---------------------------------------------------------------------------|
D|---------------------------------------------------------------------------|
A|---7--77--77--77--79--99--99--99--9----------------5--55--5----------------|
E|-----------------------------------5--55--55--55--5--------5--55--5--------|

- 0:38 -
G|---------------------------------------------------------------------------|
D|---------------------------------------------------------------------------|
A|---7--77--77--77--7--------------------------------------------------------|
E|-------------------2--22--22--22--2----------------------------------------|

- 0:45 -
G|---------------------------------------------------------------------------|
D|---------------------------------------------------------------------------|
A|---------------------------------------------------------------------------|
E|--5--55--57--77--75--55--57--75-7------------------------------------------|

CHORUS - 0:52                                                        - 1:06 -
G|----------------------------------|--------------------------------|-------|
D|----------------------------------|--------------------------------|-PLAY--|
A|-7--77--7--------4--44--4---------|-7--77--7--------4--4----------5|--INTRO|
E|---------5--55--5--------7--77--7-|---------5--55--5----7--75--57--|-----x3|

VERSE 2 - 1:14
G|---------------------------------------------------------------------------|
D|---------------------------------------------------------------------------|
A|---7--77--77--77--79--99--99--99--9----------------5--55--5----------------|
E|-----------------------------------5--55--55--55--5--------5--55--5--------|

- 1:28 -
G|---------------------------------------------------------------------------|
D|---------------------------------------------------------------------------|
A|---7--77--77--77--7--------------------------------------------------------|
E|-------------------2--22--22--22--2----------------------------------------|

- 1:35 -
G|---------------------------------------------------------------------------|
D|---------------------------------------------------------------------------|
A|---------------------------------------------------------------------------|
E|--5--55--57--77--75--55--57--75-7------------------------------------------|

CHORUS - 1:42
G|----------------------------------|----------------------------------------|
D|----------------------------------|----------------------------------------|
A|-7--77--7--------4--44--4---------|-7--77--7--------4--4----------5--------|
E|---------5--55--5--------7--77--7-|---------5--55--5----7--75--57----------|

- 1:56 -                           x4
G|----------------------------------|
D|----------------------------------|
A|-7--77--7--------4--44--4---------|
E|---------5--55--5--------7--77--7-|

- 2:23 -
G|---------------------------------------------------------------------------|
D|---------------------------------------------------------------------------|
A|-7-7--77-----------4-4--444--4---------------------------------------------|
E|----------5-5--55-------------7-7--77--------------------------------------|

- 2:36 -
G|----------------------------------|----------------------------------------|
D|----------------------------------|----------------------------------------|
A|-7--77--7--------4--44--4---------|-7--77--7--------4--44--4---------------|
E|---------5--55--5--------7--77--7-|---------5--55--5--------7-7-7-7-7-7-7-7|

- 2:50 -
G|----------------------------------|----------------------------------------|
D|----------------------------------|----------------------------------------|
A|-7--77--7--------4--44--4---------|-7--77--7--------4--4----------5--------|
E|---------5--55--5--------7--77--7-|---------5--55--5----7--75--57----------|

- 3:04 -                                                 3:15 -
G|-----------------------------------------------------|---------------------|
D|-----------------------------------------------------|-PLAY----------------|
A|---7--77--77--77--79--99--99--99--9--------5--55--5--|--INTRO--------------|
E|-----------------------------------5--55--5----------|-----x3--------------|


T H E  B E A R D S


| /  slide up
| \  slide down
| h  hammer-on
| p  pull-off
| ~  vibrato
| +  harmonic
| x  Mute note
===============================================================================
Добавлено: 19.06.2016
Вам также может быть интересно:
Другие материалы по этой песне:
  • Аккорды и текст

Страница создана 19.06.2016
http://primanota.ru/the-beards/growing-a-beard-chords.htm
Привет, Гость.
Предлагаем пройти революционный курс по гитаре.
Подарок от PrimaNota.Ru, забирай!