PrimaNota.ru - самый крупный в мире бесплатный архив песенных текстов, аккордов, табулатур и нот


The Beards - The Beards Club - таба, бас-таба, видео

Регистрация Запомнить меня
Войти через:  Facebook Google Twitter Vk Yandex Mail.ru

The Beards - The Beards Club - таба, бас-таба, видео

Печатать
Просмотров: 164
Уроки эстрадного вокала в Санкт-Петербурге
[INTRO] 
 A smooth slice first                                           x2
e|---------------------------------------------------------------------------|
B|---------------------------------------------------------------------------|
G|---------------------------------------------------------------------------|
D|----------------3---------------3---------------3--------------------------|
A|------5--5--3/5-1---3/5--5--3/5-1---3/5--5--3/5-1---3--5-5--3--5-----------|
E|-10\--3--3--1/3-----1/3--3--1/3-----1/3--3--1/3-----1--3-3--1--3-----------|


[VERSE 1] - 0:18
e|---------------------------------------------------------------------------|
B|---------------------------------------------------------------------------|
G|---------------------------------------------------------------------------|
D|------------3---------------3---------------3---------------3--------------|
A|--5--5--3/5-1---3/5--5--3/5-1---3/5--5--3/5-1---3/5--5--3/5-1--------------|
E|--3--3--1/3-----1/3--3--1/3-----1/3--3--1/3-----1/3--3--1/3----------------|

e|---------------------------------------------------------------------------|
B|---------------------------------------------------------------------------|
G|---------------------------------------------------------------------------|
D|--------------3---------------3---------------3---------------3------------|
A|--3/5--5--3/5-1---3/5--5--3/5-1---3/5--5--3/5-1---3/5--5--3/5-1------------|
E|--1/3--3--1/3-----1/3--3--1/3-----1/3--3--1/3-----1/3--3--1/3--------------|


[PRE-CHORUS 1] - 0:32
e|------------------|--------------------------------------------------------|
B|------------------|--------------------------------------------------------|
G|--5--5----5--5----|--------------------------------------------------------|
D|--5--5----5--5----|-----------3---------------5----------------------------|
A|--3--3----3--3----|-5--5--3/5-1---3/5--5--3/5-3----------------------------|
E|---------------6\-|-3--3--1/3-----1/3--3--1/3------------------------------|

e|------------------|--------------------------------------------------------|
B|------------------|--------------------------------------------------------|
G|--5--5----5--5----|--------------------------------------------------------|
D|--5--5----5--5----|-----------3--------------------------------------------|
A|--3--3----3--3----|-5--5--3/5-1---3--5-5--3--5-----------------------------|
E|---------------6\-|-3--3--1/3-----1--3-3--1--3-----------------------------|


[Lick] - 0:45
e|---------------------------------------------------------------------------|
B|---------------------------------------------------------------------------|
G|---------------------------------------------------------------------------|
D|--/5-3---3----------------------3h5p3h5p3----------------------------------|
A|-------5---5-4-3--3--5-5--3--5---------------------------------------------|
E|------------------1--3-3--1--3---------------------------------------------|


[VERSE 2] - 0:49
e|---------------------------------------------------------------------------|
B|---------------------------------------------------------------------------|
G|---------------------------------------------------------------------------|
D|------------3---------------3---------------3---------------3--------------|
A|--5--5--3/5-1---3/5--5--3/5-1---3/5--5--3/5-1---3/5--5--3/5-1--------------|
E|--3--3--1/3-----1/3--3--1/3-----1/3--3--1/3-----1/3--3--1/3----------------|

e|---------------------------------------------------------------------------|
B|---------------------------------------------------------------------------|
G|---------------------------------------------------------------------------|
D|--------------3---------------3---------------3---------------3------------|
A|--3/5--5--3/5-1---3/5--5--3/5-1---3/5--5--3/5-1---3/5--5--3/5-1------------|
E|--1/3--3--1/3-----1/3--3--1/3-----1/3--3--1/3-----1/3--3--1/3--------------|


[PRE-CHORUS 2] - 1:03
e|------------------|--------------------------------------------------------|
B|------------------|--------------------------------------------------------|
G|--5--5----5--5----|--------------------------------------------------------|
D|--5--5----5--5----|-----------3---------------5----------------------------|
A|--3--3----3--3----|-5--5--3/5-1---3/5--5--3/5-3----------------------------|
E|---------------6\-|-3--3--1/3-----1/3--3--1/3------------------------------|

e|------------------|--------------------------------------------------------|
B|------------------|--------------------------------------------------------|
G|--5--5----5--5----|--------------------------------------------------------|
D|--5--5----5--5----|-----------3--------------------------------------------|
A|--3--3----3--3----|-5--5--3/5-1---3--5-5--3--5-----------------------------|
E|---------------6\-|-3--3--1/3-----1--3-3--1--3-----------------------------|


[CHORUS 1] - 1:17
 [G chord]       [C chord]    x3 - 1:27
e|-3--3----3------0--0----0----|---------------------------------------------|
B|-3--3----3------1--1----1----|---------------------------------------------|
G|-0--0----0------0--0----0----|-----------------------------3b--------------|
D|-0--0----0------2--2----2----|-----------------------------3b--------------|
A|-2--2----2------3--3----3----|--5--5--3/5-7-8---5-5--3--5------------------|
E|-3--3----3------0--0----0----|--3--3--1/3-5-6---3-3--1--3------------------|
 [G chord]       [C chord]


[BRIDGE] - 1:31
e|---------------------------------------------------------------------------|
B|---------------------------------------------------------------------------|
G|---------------------------------------------------------------------------|
D|------------3---------------3---------------3------------------------------|
A|--5--5--3/5-1---3/5--5--3/5-1---3/5--5--3/5-1---3--5-5--3--5---------------|
E|--3--3--1/3-----1/3--3--1/3-----1/3--3--1/3-----1--3-3--1--3---------------|


[VERSE 3] - 1:38
e|---------------------------------------------------------------------------|
B|---------------------------------------------------------------------------|
G|---------------------------------------------------------------------------|
D|------------3---------------3---------------3---------------3--------------|
A|--5--5--3/5-1---3/5--5--3/5-1---3/5--5--3/5-1---3/5--5--3/5-1--------------|
E|--3--3--1/3-----1/3--3--1/3-----1/3--3--1/3-----1/3--3--1/3----------------|

e|---------------------------------------------------------------------------|
B|---------------------------------------------------------------------------|
G|---------------------------------------------------------------------------|
D|--------------3---------------3---------------3---------------3------------|
A|--3/5--5--3/5-1---3/5--5--3/5-1---3/5--5--3/5-1---3/5--5--3/5-1------------|
E|--1/3--3--1/3-----1/3--3--1/3-----1/3--3--1/3-----1/3--3--1/3--------------|


[PRE-CHORUS 3] - 1:52
e|------------------|--------------------------------------------------------|
B|------------------|--------------------------------------------------------|
G|--5--5----5--5----|--------------------------------------------------------|
D|--5--5----5--5----|-----------3---------------5----------------------------|
A|--3--3----3--3----|-5--5--3/5-1---3/5--5--3/5-3----------------------------|
E|---------------6\-|-3--3--1/3-----1/3--3--1/3------------------------------|

e|------------------|--------------------------------------------------------|
B|------------------|--------------------------------------------------------|
G|--5--5----5--5----|--------------------------------------------------------|
D|--5--5----5--5----|-----------3--------------------------------------------|
A|--3--3----3--3----|-5--5--3/5-1---3--5-5--3--5-----------------------------|
E|---------------6\-|-3--3--1/3-----1--3-3--1--3-----------------------------|


[CHORUS 2] - 2:06
 [G chord]       [C chord]    x3 - 2:16
e|-3--3----3------0--0----0----|---------------------------------------------|
B|-3--3----3------1--1----1----|---------------------------------------------|
G|-0--0----0------0--0----0----|---------------------------------------------|
D|-0--0----0------2--2----2----|---------------------------------------------|
A|-2--2----2------3--3----3----|--5--5--3/5-7-8---5-5--3--5------------------|
E|-3--3----3------0--0----0----|--3--3--1/3-5-6---3-3--1--3----6\------------|
 [G chord]       [C chord]


[VERSE 4] - 2:20
e|---------------------------------------------------------------------------|
B|---------------------------------------------------------------------------|
G|---------------------------------------------------------------------------|
D|------------3---------------3---------------3---------------3--------------|
A|--5--5--3/5-1---3/5--5--3/5-1---3/5--5--3/5-1---3/5--5--3/5-1--------------|
E|--3--3--1/3-----1/3--3--1/3-----1/3--3--1/3-----1/3--3--1/3----------------|
 PM|-----------------------------------------------------------|PM

e|---------------------------------------------------------------------------|
B|---------------------------------------------------------------------------|
G|---------------------------------------------------------------------------|
D|--------------3---------------3---------------3---------------3------------|
A|--3/5--5--3/5-1---3/5--5--3/5-1---3/5--5--3/5-1---3/5--5--3/5-1------------|
E|--1/3--3--1/3-----1/3--3--1/3-----1/3--3--1/3-----1/3--3--1/3--------------|
 PM|-------------------------------------------------------------|PM


[PRE-CHORUS 4] - 1:52
e|------------------|--------------------------------------------------------|
B|------------------|--------------------------------------------------------|
G|--5--5----5--5----|--------------------------------------------------------|
D|--5--5----5--5----|-----------3---------------5----------------------------|
A|--3--3----3--3----|-5--5--3/5-1---3/5--5--3/5-3----------------------------|
E|---------------6\-|-3--3--1/3-----1/3--3--1/3------------------------------|

e|------------------|--------------------------------------------------------|
B|------------------|--------------------------------------------------------|
G|--5--5----5--5----|--------------------------------------------------------|
D|--5--5----5--5----|-----------3--------------------------------------------|
A|--3--3----3--3----|-5--5--3/5-1---3--5-5--3--5-----------------------------|
E|---------------6\-|-3--3--1/3-----1--3-3--1--3-----------------------------|


[CHORUS 3] - 2:47
 [G chord]       [C chord]    x3 - 2:58
e|-3--3----3------0--0----0----|---------------------------------------------|
B|-3--3----3------1--1----1----|---------------------------------------------|
G|-0--0----0------0--0----0----|---------------------------------------------|
D|-0--0----0------2--2----2----|---------------------------------------------|
A|-2--2----2------3--3----3----|--5--5--3/5-7-8---5-5--3--5------------------|
E|-3--3----3------0--0----0----|--3--3--1/3-5-6---3-3--1--3------------------|
 [G chord]       [C chord]


[Lick] - 3:01
e|---------------------------------------------------------------------------|
B|---------------------------------------------------------------------------|
G|--------------------------------3b-----------------------------------------|
D|--/5-3---3----------------------3b-----------------------------------------|
A|-------5---5-4-3--3--5-5--3--5---------------------------------------------|
E|------------------1--3-3--1--3---------------------------------------------|


[CHORUS 4] - 2:06
 [G chord]       [C chord]    x3 - 3:16
e|-3--3----3------0--0----0----|---------------------------------------------|
B|-3--3----3------1--1----1----|---------------------------------------------|
G|-0--0----0------0--0----0----|---------------------------------------------|
D|-0--0----0------2--2----2----|---------------------------------------------|
A|-2--2----2------3--3----3----|--5--5--3/5-7-8---5-5--3--5------------------|
E|-3--3----3------0--0----0----|--3--3--1/3-5-6---3-3--1--3------------------|
 [G chord]       [C chord]


T H E  B E A R D S


************************************

| h  Hammer-on
| p  Pull-off
| b  Bend
| /  Slide up
| \  Slide down
| PM Palm Mute

************************************
Добавлено: 01.09.2017
Другие материалы по этой песне:
  • Аккорды и текст

Страница создана 19.06.2016
http://primanota.ru/the-beards/beards-club-chords.htm
Привет, Гость.
Предлагаем пройти революционный курс по гитаре.
Подарок от PrimaNota.Ru, забирай!