PrimaNota.ru - самый крупный в мире бесплатный архив песенных текстов, аккордов, табулатур и нот


The Beards - The Beards Club - бас-таба, видео

Регистрация Запомнить меня
Войти через:  Facebook Google Twitter Vk Yandex Mail.ru

The Beards - The Beards Club - бас-таба, видео

Печатать
Просмотров: 75
Greetings bearded brothers;
This bass tab is pretty accurate, just by hearing and (Obviously), watching live performances.
Any suggestions or corrections, please comment below; your opinion is pretty important.

Title: The Beards Club
By: The Beards
Album: The Beards, 2007


-------------------------------------------------------------------------------
                             The Beards Club - The Beards
-------------------------------------------------------------------------------
Tabbed by: MikeRyuk
E-mail: maadc96@gmail.com

Tuning: Standard
                                     x5                                x1
INTRO - Beginning and while guitar play melody
G|-19--19-19-19--19-19--19-19--19--19--|---17--19-19--17-19------------------|
D|-------------------------------------|-------------------------------------|
A|-------------------------------------|-------------------------------------|
E|-------------------------------------|-------------------------------------|

- Bass play along guitar riff - 0:11                                   x1
G|---------------------------------------------------------------------------|
D|---------------------------------------------------------------------------|
A|-----------1----------------1----------------1-----------------------------|
E|-3--3--1h3------1-3--3--1h3------1-3--3--1h3------1-3-3-1-3----------------|

VERSE 1 - 0:18                                                         x2
G|------------|--------------------------------------------------------------|
D|------------|--------------------------------------------------------------|
A|-----------1|--------------1----------------1----------------1-------------|
E|-3--3--1h3--|--1-3--3--1h3------1-3--3--1h3------1-3--3--1h3---1-----------|

PRE-CHORUS 1 - 0:32
G|------------------------------------------|--------------------------------|
D|------------------------------------------|--------------------------------|
A|--/5--5-5-5-5-5-5-5-5-5-5-5-5-5-5-5-5-----|-----------1----------------1---|
E|---------------------------------------6\-|-3--3--1h3------1-3--3--1h3-----|

G|------------------------------------------|--------------------------------|
D|------------------------------------------|--------------------------------|
A|--/5--5-5-5-5-5-5-5-5-5-5-5-5-5-5-5-5-----|-----------1--------------------|
E|---------------------------------------6\-|-3--3--1h3------1-3-3-1-3-------|

- 0:45
G|---------------------------------------------------------------------------|
D|--/5-3---3-----------------------------------------------------------------|
A|-------5---5-4-3-----------------------------------------------------------|
E|-----------------1-3-3-1-3-------------------------------------------------|

VERSE 2 - 0:49                                                         x2
G|------------|--------------------------------------------------------------|
D|------------|--------------------------------------------------------------|
A|-----------1|--------------1----------------1----------------1-------------|
E|-3--3--1h3--|--1-3--3--1h3------1-3--3--1h3------1-3--3--1h3---1-----------|

PRE-CHORUS 2 - 1:03
G|------------------------------------------|--------------------------------|
D|------------------------------------------|--------------------------------|
A|--/5--5-5-5-5-5-5-5-5-5-5-5-5-5-5-5-5-----|-----------1----------------1---|
E|---------------------------------------6\-|-3--3--1h3------1-3--3--1h3-----|

G|------------------------------------------|--------------------------------|
D|------------------------------------------|--------------------------------|
A|--/5--5-5-5-5-5-5-5-5-5-5-5-5-5-5-5-5-----|-----------1--------------------|
E|---------------------------------------6\-|-3--3--1h3------1-3-3-1-3-------|

CHORUS 1 - 1:17                  x3 - 1:27
G|--------------------------------|------------------------------------------|
D|--------------------------------|------------------------------------------|
A|--------------1-3--3--3-3-1-3-1-|-----------0-1----------------------------|
E|--3-3-3-1-3-3-------------------|--3--3-1-3--------3-3-1-3-----------------|

BRIDGE - 1:31
G|---------------------------------------------------------------------------|
D|---------------------------------------------------------------------------|
A|-----------1----------------1----------------1-----------------------------|
E|-3--3--1h3------1-3--3--1h3------1-3--3--1h3------1-3-3-1-3--------7\------|

VERSE 3 - 1:38                                                         x2
G|------------|--------------------------------------------------------------|
D|------------|--------------------------------------------------------------|
A|-----------1|--------------1----------------1----------------1-------------|
E|-3--3--1h3--|--1-3--3--1h3------1-3--3--1h3------1-3--3--1h3---1-----------|

PRE-CHORUS 3 - 1:52
G|------------------------------------------|--------------------------------|
D|------------------------------------------|--------------------------------|
A|--/5--5-5-5-5-5-5-5-5-5-5-5-5-5-5-5-5-----|-----------1----------------1---|
E|---------------------------------------6\-|-3--3--1h3------1-3--3--1h3-----|

G|------------------------------------------|--------------------------------|
D|------------------------------------------|--------------------------------|
A|--/5--5-5-5-5-5-5-5-5-5-5-5-5-5-5-5-5-----|-----------1--------------------|
E|---------------------------------------6\-|-3--3--1h3------1-3-3-1-3-------|

CHORUS 2 - 2:06                  x3 - 2:16
G|--------------------------------|------------------------------------------|
D|--------------------------------|------------------------------------------|
A|--------------1-3--3--3-3-1-3-1-|-----------0-1----------------------------|
E|--3-3-3-1-3-3-------------------|--3--3-1-3--------3-3-1-3-----------------|

VERSE 4 - 2:20 - Bass play at 2:27    x4
G|-19--19-19-19--19-19--19-19--19--19--|-------------------------------------|
D|-------------------------------------|-------------------------------------|
A|-------------------------------------|-------------------------------------|
E|-------------------------------------|-------------------------------------|

PRE-CHORUS 4 - 1:52
G|------------------------------------------|--------------------------------|
D|------------------------------------------|--------------------------------|
A|--/5--5-5-5-5-5-5-5-5-5-5-5-5-5-5-5-5-----|-----------1----------------1---|
E|---------------------------------------6\-|-3--3--1h3------1-3--3--1h3-----|

G|------------------------------------------|--------------------------------|
D|------------------------------------------|--------------------------------|
A|--/5--5-5-5-5-5-5-5-5-5-5-5-5-5-5-5-5-----|-----------1--------------------|
E|---------------------------------------6\-|-3--3--1h3------1-3-3-1-3-------|

CHORUS 3 - 2:47                  x3 - 2:58
G|--------------------------------|------------------------------------------|
D|--------------------------------|------------------------------------------|
A|--------------1-3--3--3-3-1-3-1-|-----------0-1----------------------------|
E|--3-3-3-1-3-3-------------------|--3--3-1-3--------3-3-1-3-----------------|

- 3:01
G|---------------------------------------------------------------------------|
D|--/5-3---3-----------------------------------------------------------------|
A|-------5---5-4-3-----------------------------------------------------------|
E|-----------------1-3-3-1-3-------------------------------------------------|

CHORUS 4 - 2:06                  x3 - 3:16
G|--------------------------------|------------------------------------------|
D|--------------------------------|------------------------------------------|
A|--------------1-3--3--3-3-1-3-1-|-----------0-1----------------------------|
E|--3-3-3-1-3-3-------------------|--3--3-1-3--------3-3-1-3-----------------|


T H E  B E A R D S


| /  slide up
| \  slide down
| h  hammer-on
| p  pull-off
| ~  vibrato
| +  harmonic
| x  Mute note
===============================================================================
Добавлено: 19.06.2016
Другие материалы по этой песне:
  • Аккорды и текст

Страница создана 19.06.2016
http://primanota.ru/the-beards/beards-club-chords.htm
Привет, Гость.
Предлагаем пройти революционный курс по гитаре.
Подарок от PrimaNota.Ru, забирай!