PrimaNota.ru - самый крупный в мире бесплатный архив песенных текстов, аккордов, табулатур и нот


The Barr Brothers - Little Lover - таба, видео

Регистрация Запомнить меня
Войти через:  Facebook Google Twitter Vk Yandex Mail.ru

The Barr Brothers - Little Lover - таба, видео

Печатать
Просмотров: 140
-------------------------------------------------------------------------------
                             Little Lover - The Barr Brothers
-------------------------------------------------------------------------------
Tabbed by:EVILSHADOWVOICE
E-mail:Aerosmith40rulez@yahoo.com

Tuning:Standard
Capo:3

e|----------------------------|
B|--------0---------0---------|
G|-----0---------0--------0---|This is only played in the beginning of the song
D|--2---------5---------------|once then it becomes part of the bottom part.
A|----------------------------|
E|---------------------3------|

   Verse
e|--------------------------------------------------------------|
B|------0--------0------------------0---------0----------------*|
G|----0--------0--------0--------0---------0----------0---------| Play this 24x
D|----------------------------2---------5-----------------------|
A|-0--------3--------5-----------------------------------------*|
E|-------------------------------------------------3------------|
 (on the fourth time)              When the water won't draw...
                                   I've been watching that crow...

  Chorus
    Em
e|--0---0-------0^--0----|
B|--0---0-------0^--0---*|
G|--0---0-------0^--0----| Play this 23x
D|--2---2-\4\5------5----| this is during the harp solo and a little after it.
A|--2---2-\4\5------5---*|
E|--0---0-----------0----|
   Little lover won't satisfy...

   Bridge
    D
e|--3----3----3^----3---3^--3------|
B|--2----2----2^----2---2^--2-----*|Play this 15x
G|--3----3----3^----3---3^--3------|then it goes to chorus for 31x
D|--0----0----------0-------0------|
A|--------------------------------*|
E|---------------------------------|
    I went to the market....

   Chorus
    Em
e|--0---0-------0^--0----|
B|--0---0-------0^--0---*|
G|--0---0-------0^--0----| Play this 31x then it goes to verse
D|--2---2-\4\5------5----|
A|--2---2-\4\5------5---*|
E|--0---0-----------0----|


   Verse
e|--------------------------------------------------------------|
B|------0--------0------------------0---------0----------------*|
G|----0--------0--------0--------0---------0----------0---------| Play this 7x then finish off with
D|----------------------------2---------5-----------------------|the ending measure
A|-0--------3--------5-----------------------------------------*|
E|-------------------------------------------------3------------|


   Ending
e|--------------------------------------------------------------|
B|------0--------0------------------0---------0-----------------|
G|----0--------0--------0--------0---------0----------0---------|                                      
D|----------------------------2---------5-----------------------|
A|-0--------3--------5--------------------------------------0---| Let the last note ring out
E|-------------------------------------------------3------------|


************************************
| ^   upstroke
| /   slide up
| \   slide down
| h   hammer-on
| p   pull-off
| ~   vibrato
| +   harmonic
| x   Mute note
| b   Bend
| pb  Pre-bend
| br  Bend release
| pbr Pre-bend release
| brb Bend release bend

************************************
Добавлено: 28.08.2015
Другие материалы по этой песне:
  • Аккорды и текст

Страница создана 28.08.2015
http://primanota.ru/the-barr-brothers/little-lover-chords.htm
Привет, Гость.
Предлагаем пройти революционный курс по гитаре.
Подарок от PrimaNota.Ru, забирай!