PrimaNota.ru - самый крупный в мире бесплатный архив песенных текстов, аккордов, табулатур и нот


Band - Moondog Matinee (album) - бас-таба, видео

Регистрация Запомнить меня
Войти через:  Facebook Google Twitter Vk Yandex Mail.ru

Band - Moondog Matinee (album) - бас-таба, видео

Печатать
Просмотров: 94
Уроки эстрадного вокала в Санкт-Петербурге
---------------
Moondog Matinee
---------------
The Band
Bass Tabs
Bass played by Rick Danko and Levon Helm

Original Track Listing

1. Ain't Got No Home (Clarence "Frogman" Henry)
2. Holy Cow (Allen Toussaint)
3. Share Your Love (Alfred Braggs, Deadric Malone)
4. Mystery Train (Junior Parker, Sam Phillips)
5. Third Man Theme (Anton Karas)

6. Promised Land (Chuck Berry)
7. The Great Pretender (Buck Ram)
8. I'm Ready (Fats Domino, Al Lewis, Sylvester Bradford)
9. Saved (Jerry Leiber, Mike Stoller)
10. A Change Is Gonna Come (Sam Cooke)


-----------------
Ain't Got No Home
-----------------

164BPM, 4/4

Intro

|---------|----------|---------|----------|
|---------|----------|---------|----------|
|---------|-----5----|---------|-----5----|
|---------|----------|---------|----------|

|---------|----------|---------|---------|
|---------|----------|---------|---------|
|---------|-----5----|---------|---------|
|---------|----------|---------|--------3|

|-------------|-------------|-------------|-------------|
|-------------|-------------|-------------|-------------|
|-------------|------------5|-5-55-55-57-5|-5-55-55-55--|
|-3--3--3-33-3|-3-33--3-33--|-------------|------------5|

|------------|-------------|-------------|----------|
|------------|-------------|-------------|----------|
|----4--7----|----2--5--2-5|-5-55-55-5--5|-5-------5|
|-5---------3|-3-----------|-------------|----------|

Chorus

|---------4---|-----------|---------4---|-------------|
|----4--7-----|-----------|----4--7-----|----4--7--4--|
|-5----------5|-5----55---|-5----------5|-5-----------|
|-------------|-----------|-------------|-------------|

|-------------|-------------|---------4---|---------4---|
|---------2---|---------2---|----4--7-----|----4--7-----|
|----2--5-----|----2--5----5|-5----------5|-5-----------|
|-3----------3|-3-----------|-------------|------------5|

|-------------|-------------|---------4--7-|---------|
|---------4---|-------------|----4--7------|---------|
|----4--7-----|----2--5-52--|-5-5----------|--------5|
|-5-5--------3|-3-3---------|--------------|---------|

Verse

|---------4---|------------|---------4---|------------|
|----4--7-----|------------|----4--7-----|------------|
|-5----------5|-5----5--5-5|-5----------5|-5--5--5----|
|-------------|------------|-------------|------------|

|-------------|------------|---------4---|-------------|
|---------2---|------------|----4--7-----|-------------|
|----2--5-----|-----------5|-5-5--------5|-5-55-55-57--|
|-3----------3|-3-33--3----|-------------|------------5|

|-------------|-------------|---------44-7|-7--------|
|---------4---|---------2---|----4-47-----|----------|
|----4--7-----|----2--5----5|-5-5---------|---------5|
|-5-5--------5|-3-3---------|-------------|----------|

Chorus

|-------------|-------------|-------------|-------------|
|-------------|-------------|-------------|----------2--|
|-5--2-----2--|-5--------2-2|-5--2-----2--|-5-----------|
|-------5-----|----2--5-----|-------5-5---|----2-25-----|

|-------------|----------2--|-------------|-------------|
|----------2--|-5-----------|----------5--|----------2-2|
|----2--5-----|----2--5-----|-5-5---------|-5-----------|
|-3-----------|-------------|----2-25-----|----2-25-----|

|-------------|-------------|----------4--|-7--------|
|----------4--|----------2--|----4--7-----|----------|
|----4--7-----|----2--5-----|-5-----------|---------5|
|-5----------3|-3-----------|-------------|----------|

Verse

|-------4--4--|-------------|-------4--4--|-------------|
|----4----7--7|-------------|----4----7--7|-------------|
|-5-----------|-5-55-55-55-5|-5-5---------|-5-55-55-55-5|
|-------------|-------------|-------------|-------------|

|-------------|-------------|---------4---|-------------|
|---------2---|-------------|----4--7-----|-------------|
|----2--5-----|------------5|-5-5--------5|-5-55-55-57--|
|-3-3--------3|-3-33-33-33--|-------------|------------5|

|-------------|-------------|---------77-7|-7--------|
|-------4--4--|-------------|----4--7-----|----------|
|----4----7--7|-------2--2-5|-5-----------|---------5|
|-5-----------|-3-33-3--3---|-------------|----------|

|-------4--4-7|-7-------4--|-------4--4--|-------------|
|----4----7---|------7-----|----4-7--7---|-------------|
|-5-5---------|-----------5|-5-5--------5|-5-55-55-57--|
|-------------|------------|-------------|-------------|

|-------------|-------------|---------4--|-------------|
|---------2--5|-------------|---4--7-----|-------------|
|----2--5-----|----2--5--5-5|-----------5|-5-55-55-57--|
|-3-----------|-3-----------|------------|------------5|

|-------------|-------------|---------4--7-|---------|
|---------4---|-------------|----4--7------|---------|
|----4--7-----|----2--5-55-5|-5-5----------|--------5|
|-5-5--------3|-3-3---------|--------------|---------|

Chorus

|-------------|----------4--|-------------|-------------|
|-------------|----4-47-----|-------------|----4--7-----|
|-5-----------|-5-----------|-5-----------|-5--------5--|
|----7--5--7--|-------------|----7--5--7--|-------------|

|-------------|-------------|----------4--|-7--------4--|
|----------2--|-5--------2--|----4--7-----|----4--7-----|
|----2--5-----|----2-25-----|-5-----------|-------------|
|-3-3---------|-------------|-------------|-------------|

|-------------|-------------|----------4--|----------|
|-7--------4--|-5-5------2--|----4--7-----|----------|
|----4-47-----|----2-25-----|-5-----------|-5-------5|
|-------------|-------------|-------------|----------|

Solo

|---------4---|----------4--|------------|-------------|
|----4--7-----|----4--7-----|----4--7----|-------------|
|-5----------5|-5----------5|-5---------5|-5-53-32-2--2|
|-------------|-------------|------------|----------5--|

|-------------|-------------|----------4--|-7-x------4--|
|----------2--|----------2--|----4--7-----|----4--7-----|
|----2--5-----|----2--5-5---|-5-----------|-------------|
|-3-3---------|-3-----------|-------------|-------------|

|-------------|-------------|----------4-7|-7--------|
|-7--------4--|----------2--|----4--7-7---|----------|
|----4-47-7---|----2--5-5---|-5-5---------|---------5|
|---5---------|-3-3---------|-------------|----------|

Verse

|-------4--4--|-------------|-------4--4--|-------------|
|----4-7--7---|-------------|----4----7---|-------------|
|-5----------5|-5-x5-55-55-5|-5-----------|-5-55-55-5--5|
|-------------|-------------|-------------|-------------|

|-------------|-------------|-------4--4--|-------------|
|---------2--5|-5-55-55-55--|----4----7---|-------------|
|----2--5-----|------------5|-5-5---------|-5-55-55-57--|
|-3-3---------|-------------|-------------|------------5|

|-------------|-------------|---------44-7|-7--------|
|---------4---|----------2--|----4--7-----|----------|
|----4--7-----|----2--5-5--5|-5-5---------|---------5|
|-5-5---------|-3-3---------|-------------|----------|

Chorus

|-------------|----------4--|-------------|-------------|
|-------------|----4-47-----|-------------|-------------|
|-5-----------|-5----------5|-5--------2--|-5--3-32-----|
|----7-75--7-7|-------------|----2-25-----|----------5-5|

|-------------|-------------|----------4--|-7--------4--|
|----------2--|----------2--|----4--7-7---|----4--7-----|
|----2--5-----|----2-25-----|-5-----------|-------------|
|-3-----------|-3-----------|-------------|-------------|

|-------------|-------------|----------4--|----------|
|----------4--|----------2--|----4--7-----|----------|
|----4--7-7---|----2--5-5---|-5-----------|-5-------5|
|-5-----------|-3-3---------|-------------|----------|

Ending

|-------------|---------4---|-------------|---------4---|
|-------------|----4--7-----|-------------|----4--7-----|
|-5--5--5-5--5|-5----------5|-5-55-55-5--5|-5-5---------|
|-------------|-------------|-------------|------------3|

|-------------|-------------|---------4---|-------------|
|-------------|---------2---|----4--7-----|-------------|
|-------------|----2--5----5|-5----------5|-5-55-55-5---|
|-3-33--3-33-3|-3-3---------|-------------|------------5|

|------------|-------------|-------------|----------*|
|------------|---------5---|-------------|----------*|
|------------|----------5-5|-5-55-55-55-5|-5--------*|
|--55-55-55-3|-3-33-33-----|-------------|----------*|


--------
Holy Cow
--------

112BPM, 4/4

Intro

|--------------|-------------|------------|--------------|
|-------2-3--5-|-5-----------|------------|--------------|
|-5------------|---------2---|-3----3-3---|-5-5-3--2-----|
|----3---------|----3--5-----|------------|-----------5--|

Verse

|------------|-------------|------------|--------------|
|-5----------|-------------|------------|--------------|
|------5-5---|-------2-3-4-|-5----------|-5---------2--|
|------------|-3-----------|------5-5---|-----0-5-3----|

|------------|-------------|------------|----------|
|------------|-------------|------------|----------|
|-3----3-3---|-5-----5-5---|------5-5---|----------|
|------------|-----5-------|-3----------|-3--------|

|-------------|--------------|-----------|--------------|
|-5-5---------|--------------|-----------|--------------|
|-------5-5---|--------2-3-4-|-5---------|-5---------2--|
|-------------|-3-3----------|------5----|-----0-5-x----|

|------------|------------|------------|-------------|
|------------|------------|-5----------|-------------|
|-3----3-3---|-5----5-5---|------5-5---|------2-3-5--|
|------------|------------|------------|-3-----------|

Chorus

|-------------|--------------|--------------|---------------|
|-------2-3---|-5------------|--------------|---------------|
|-5--5--------|-----------2--|-3--3-3-2---2-|---------------|
|-------------|----3-3-5-----|--------------|-5-5--5-3--3-x-|

|----------------|---------------|-------------|--------------|
|-3-3-3--3-3-3-4-|-5-------------|-------------|--------------|
|----------------|-----------2---|-3-----2-3-4-|-5-5-3--2-----|
|----------------|----3-0-5----5-|-------------|-----------5--|

Verse

|------------|-------------|-----------|-------------|
|------------|-5-----------|-----------|-------------|
|------5-5---|-------2-3-4-|-5---------|-5--------2--|
|-3----------|-------------|------5----|-----0-5-----|

|------------|------------|------------|----------|
|------------|------------|-5----------|----------|
|-3----3-3---|-5----5-5---|------5-5---|----------|
|------------|------------|------------|-3--------|

|------------|-------------|-----------|-------------|
|-5----------|-------------|-----------|-------------|
|------5-5---|-------2-3-4-|-5---------|-5---------2-|
|------------|-3-----------|------5----|-------2-5---|

|-------------|------------|-----------|-------------|
|-------------|------------|-5---------|-------------|
|-3-3---3-3---|-5----5-5---|------5----|------2-3-5--|
|-------------|------------|-----------|-3-----------|

Chorus

|-------------|-------------|----------------|--------------|
|-------2-3---|-5-----------|----------------|--------------|
|-5--5--------|---------2---|-3--3-3-2-2-2-2-|--------------|
|-------------|----3--5-----|----------------|-5-5--0-3-3---|

|--------------|--------------|-------------|--------------|
|-3---2-3-3--4-|-5------------|-------------|--------------|
|--------------|-----------2--|-3--3---2-3--|-5-5-3--2-----|
|--------------|----3-0-5-----|-------------|-----------5--|

Solo

|-------------|--------------|------------|--------------|
|-5-5---------|--------------|------------|--------------|
|-------5-5---|--------2-3-4-|-5----------|-5---------2--|
|-------------|-3-3----------|------5-5---|-----0-5-0----|

|-----------|------------|----------|-------------|
|-----------|---------2--|----------|---------2---|
|-3---------|-5-----2----|----------|---2---5---5-|
|------3----|------------|-3--------|-------------|

|------------|-------------|------------|-------------|
|-5--------2-|-------------|------------|-------------|
|------5-----|-------2-3-4-|-5----------|-5--------2--|
|------------|-3-----------|------5---5-|-----0-5-----|

|------------|--------------|-----------|-------------|
|------------|------------2-|-----------|-----------2-|
|-3-------3--|-5----5-2-5---|------5----|-------2-5---|
|-------3----|--------------|-3---------|-3-----------|

Chorus

|-------------|--------------|-----------------|-----------------|
|-------2-3---|-5------------|-----------------|---------------2-|
|-5--5--------|-----------2--|-3-3-3-3-2-2-2-2-|-----------------|
|-------------|----3-0-5-----|-----------------|-5-5-5-5-3-3-3---|

|----------------|--------------|-------------|--------------|
|-3--3-3-3-3-3-4-|-5--5---------|-------------|--------------|
|----------------|-----------2--|-3-----2-3-4-|-5-5-3--2-----|
|----------------|------3-5-----|-------------|-----------5--|

Solo/Ending

|-------------|------------|-----------|--------------|
|-5-----------|------------|-----------|--------------|
|------5-5----|------2-3-4-|-5---------|-5---------5--|
|-----------3-|------------|------5----|-----2-5-2----|

|------------|------------|-----------|--------------|
|------------|---------2--|---------5-|--------------|
|-3----------|-5-----2----|-----------|----2--3-4-5--|
|-------0-3--|------------|-3---------|--3-----------|

|-------------|------------|------------|--------------|
|-5-----------|------------|------------|--------------|
|------5-5----|------2-3-4-|-5--------4-|-5---------5--|
|-----------3-|------------|------5-----|-----2-5-2----|

|---------------|-------------|------------|--------------*|
|---------------|----------2--|---------2--|-5------------*|
|-3--3------3-4-|-5----2-5----|-------5----|-------2-3-5--*|
|-------0-3-----|-------------|-3----------|----3---------*|


---------------
Share Your Love
---------------

96BPM, 4/4

Intro

|------------|------------|-------------|-------------|
|------------|------------|-3---3-2---2-|-------------|
|----------0-|-1----1---3-|-------------|-5---5-3-----|
|-1----5-----|------------|-------------|----------5--|

|-------------|----------|
|-------------|----------|
|----------2--|-3--------|
|-3--3--5-----|----------|

Verse

|-------------|-------------|-------------|-------------|
|----3--------|-------------|----3--------|-------------|
|-------------|----------3--|-------------|----------3--|
|-1-----5--5--|-6---5-6-----|-1-----5--5--|-6---5-6-----|

|-------------|-------------|-------------|-------------|
|-3---3-2---2-|-------------|-------------|-------------|
|-------------|-5---5-3-----|----------2--|-3-----------|
|-------------|----------5--|-3--3--5-----|----6--5--3--|

|-------------|---------------|-------------|--------------|
|----3--------|---------------|-8---8-7---7-|-5--3-------2-|
|-------------|-----------5-8-|-------------|-------3--5---|
|-1-----5--5--|-6---5-6-8-----|-------------|--------------|

|-------------|-------------|-------------|--------------|
|-3--2--------|-------------|-------------|--------------|
|-------5--3--|----------3--|-------------|-----------5--|
|-------------|-6--5--3-----|-1----1-3-5--|-6---5-6-8----|

|-------------|-----------|
|-------------|-----------|
|-5-----5---5-|-3------3--|
|-----x-------|-----------|

Verse

|-------------|-------------|-------------|--------------|
|----3--------|-------------|----3--------|------------2-|
|-------------|----------3--|-------------|----------3---|
|-1-----5--5--|-6---5-6-----|-1-----5--5--|-6---5-6------|

|-------------|-------------|-------------|-------------|
|-3---3-2---2-|-------------|-------------|-------------|
|-------------|-5---5-3-----|----------2--|-3-----------|
|-------------|----------5--|-3--3--5-----|----6--5--3--|

|-------------|---------------|-------------|-------------|
|----3--------|---------------|-8---8-7---7-|-5--3--------|
|-------------|-----------5-8-|-------------|-------5--3--|
|-1-----5--5--|-6---5-6-8-----|-------------|-------------|

|-------------|-------------|-------------|--------------|
|-3--2--------|-------------|-------------|--------------|
|-------5--3--|----------3--|------1-1--1-|--------------|
|-------------|-6--5--3-----|-1-----------|-1----1-0-1-3-|

Bridge

|-------------|-------------|--------------|------------|
|-------------|-------------|--------------|------------|
|-------------|-1---1-1---2-|-3----34----4-|-5---5-4----|
|-5----5-3-1--|-------------|-----5-----6--|------------|

|-------------|--------------|-------------|-------------|
|-------------|--------------|-------------|-------------|
|-3---3-3-----|-5---5----5---|----------2--|-3-----------|
|-----------5-|-------5----5-|-3--3--5-----|----6--5--3--|

Verse and Ending

|-------------|---------------|-------------|---------------|
|----3--------|---------------|----3--------|---------------|
|-------------|-----------5-8-|-------------|-----------5-7-|
|-1-----5--5--|-6---5-6-8-----|-1-----5--5--|-6---5-6-8-----|

|---------------|-------------|-------------|-------------|
|---------------|-------------|-------------|-------------|
|-8---8-7-7-7-7-|-5---5-3-----|----------2--|-3-----------|
|---------------|----------5--|-3--3--5-----|----6--5--3--|

|-------------|---------------|-------------|--------------|
|----3--------|---------------|-8---8-7---7-|-5--3-------2-|
|-------------|-----------5-8-|-------------|-------3--5---|
|-1-----5--5--|-6---5-6-8-----|-------------|--------------|

|-------------|-------------|-------------|-------------|
|-3--2--------|-------------|-------------|-------------|
|-------5--3--|----------3--|-5---5-3---3-|-------3--3--|
|-------------|-6--5--3-----|-------------|-6---6-------|

|-10--9--7--5--|-------------|------------|---------------|
|--------------|-8--7--5-----|------------|-3-3-----------|
|--------------|----------3--|-1----1---1-|-------1-1-1---|
|--------------|-------------|------------|-------------3-|

|----------*|
|----------*|
|----------*|
|-1--------*|


-------------
Mystery Train
-------------

112BPM, 4/4

[guitar intro]

Intro

|--------------|--------------|--------------|--------------|
|--------------|--------------|--------------|--------------|
|--------------|--------------|--------------|--------------|
|-0-00-00-03-5-|-0-00-00-03-5-|-0-00-00-03-5-|-0-00-5-3-0-3-|

|-------------|--------------|--------------|-----------------|
|-------------|--------------|--------------|-----------------|
|-------------|--------------|--------------|-----------------|
|-0--0-00-3-5-|-0-00-000-3-5-|-0--0-000-3-5-|-0-000-000-2-3-4-|

Chorus

|---------------|----------------|---------------|--------------|
|---------------|----------------|---------------|--------------|
|---------------|----------------|---------------|--------------|
|-5-5-5--5--5-3-|-5-5-5-x5-5-5-3-|-5--5-x5-3-3-5-|-0-00-000-3-5-|

|----------------|---------------|---------------|--------------|
|----------------|---------------|---------------|--------------|
|----------------|---------------|---------------|--------------|
|-0-00-000-2-3-4-|-5-55-5555-5-3-|-5-555-555-5-5-|-5--5-5-5-3-3-|

|--------------|----------------|----------------|----------------|
|--------------|----------------|----------------|----------------|
|--------------|----------------|----------------|----------------|
|-0-00-000-3-5-|-0-00-000-0-5-6-|-7-7777-7-7-5-7-|-5-5-5-5-5-3-35-|

|---------------|--------------|
|---------------|--------------|
|---------------|--------------|
|-0-000-000-3-5-|-0-00-000-3-5-|

Chorus

|-----------------|---------------|---------------|--------------|
|-----------------|---------------|---------------|--------------|
|-----------------|---------------|---------------|--------------|
|-5-555-555-55553-|-5-55-555-5-53-|-5-555-555-3-3-|-0--0-000-3-5-|

|----------------|-----------------|-----------------|---------------|
|----------------|-----------------|-----------------|---------------|
|----------------|-----------------|-----------------|---------------|
|-0-00-000-2-3-4-|-5-555-555-55555-|-5-555-555-55555-|-5-555-555-3-3-|

|--------------|-----------------|---------------|---------------|
|--------------|-----------------|---------------|---------------|
|--------------|-----------------|---------------|---------------|
|-0-000--0-3-5-|-0-000-0-000-5-6-|-7-7--777-7--7-|-5-5-5-3-5-3-3-|

|--------------|--------------|
|--------------|--------------|
|--------------|--------------|
|-0-00-000-3-5-|-0-00-000-5-3-|

Verse

|---------------|---------------|--------------|--------------|
|---------------|---------------|--------------|--------------|
|---------------|---------------|--------------|--------------|
|-0-00-00-0-3-5-|-0-00-000-03-5-|-0-00-00-00-5-|-0-00-00-00-5-|

|---------------|--------------|---------------|--------------|
|---------------|--------------|---------------|--------------|
|---------------|--------------|---------------|--------------|
|-0-000-000-0-5-|-0-00-00-00-5-|-0-00-000--3-5-|-0-0-0--3--4--|

Chorus

|-----------------|-----------------|-------------------|--------------|
|-----------------|-----------------|-------------------|--------------|
|-----------------|-----------------|-------------------|--------------|
|-5-555-555-555-5-|-5-555-5-5-55555-|-5-5-5-55-5-3-35-5-|-0-00-000-3-5-|

|-----------------|-----------------|-----------------|----------------|
|-----------------|-----------------|-----------------|----------------|
|-----------------|-----------------|-----------------|----------------|
|-0-0-0-0-002-3-4-|-5-555-3-5-55553-|-5-555-555-555-5-|-5-555-5-5-3-35-|

|---------------|-----------------|---------------|----------------|
|---------------|-----------------|---------------|----------------|
|---------------|-----------------|---------------|-5--------------|
|-0-000-000-3-5-|-0-000-000-3-5-6-|-7-7-77-7-7--7-|---7-7-5-5-5-3--|

|--------------|----------------|
|--------------|----------------|
|--------------|----------------|
|-0-00-000-3-5-|-0-00-000-2-3-4-|

Chorus

|-----------------|-----------------|----------------|----------------|
|-----------------|-----------------|----------------|----------------|
|-----------------|-----------------|----------------|----------------|
|-5-555-555-55555-|-5-55555-5-555-3-|-5-55555-5-3-53-|-0-000-000-3-35-|

|-----------------|------------------|-----------------|---------------|
|-----------------|------------------|-----------------|---------------|
|-----------------|------------------|-----------------|---------------|
|-0-00000-0-2-3-4-|-5-55555-5-555557-|-5-5-55575-555-3-|-55330-5-5---3-|

|--------------|-----------------|-----------------|-----------------|
|--------------|-----------------|-----------------|-----------------|
|--------------|-----------------|-----------------|-----------------|
|-0-00-000-3-5-|-0-00000-0-005-6-|-7-7777777-7-777-|-5-5355345-5-5-3-|

|---------------|--------------|
|---------------|--------------|
|---------------|--------------|
|-0-0000000-3-5-|-0-000000-5-3-|

Verse

|---------------|----------------|----------------|-------------|
|---------------|----------------|----------------|-------------|
|---------------|----------------|----------------|-------------|
|-0--0--0-0-3-5-|-0-00-000-003-5-|-0-00-000-0-0-5-|-0--2-3-3-4--|

Chorus

|----------------|-----------------|---------------|--------------|
|----------------|-----------------|---------------|--------------|
|----------------|-----------------|---------------|--------------|
|-5-55-555-55553-|-5-555-555-55553-|-5-555-555-3-3-|-0-00-000-3-5-|

|-----------------|-----------------|-----------------|---------------|
|-----------------|-----------------|-----------------|---------------|
|-----------------|-----------------|-----------------|---------------|
|-0-000-000-2-3-4-|-5-555-555-55555-|-5-555-555-5-555-|-5-555-555-3-3-|

|--------------|----------------|-----------------|---------------|
|--------------|----------------|-----------------|---------------|
|--------------|----------------|-----------------|---------------|
|-0-000--0-3-5-|-0-00-000-3-5-6-|-7-777-777-7-7-7-|-5-5-5-3-5-3-3-|

|--------------|---------------|----------------|---------------|
|--------------|---------------|----------------|---------------|
|--------------|---------------|----------------|---------------|
|-0-00-000-3-5-|-0-000-000-3-5-|-0-000-00-000-3-|-0-000--0--5-3-|

|---------------|-------------|---------------|---------------|
|---------------|-------------|---------------|---------------|
|---------------|-------------|---------------|---------------|
|-0-000-00--3-5-|-0-00-00-5-3-|-0-00-00-003-5-|-0-000-000-3-2-|

|--------------|-----------------|----------------|-----------------|
|--------------|-----------------|----------------|-----------------|
|--------------|-----------------|----------------|-----------------|
|-0-00-000-3-5-|-0-000-000-003-5-|-0-00-000-003-5-|-0-000-000-005-3-|

|---------------|---------------|-------------|---------------|
|---------------|---------------|-------------|---------------|
|---------------|---------------|-------------|---------------|
|-0-000--0--3-5-|-0-000-00--3-5-|-0-00-00-3-5-|-0-00-000-3-5--|

|-----------------|-----------------|-----------------|-----------------|
|-----------------|-----------------|-----------------|-----------------|
|-----------------|-----------------|-----------------|-----------------|
|-0-000-000-000-00|-0-000000000-0000|-0-0-000-00000000|-0-0000000-000-00|

|-----------------|-----------------|-----------------|-----------------|
|-----------------|-----------------|-----------------|-----------------|
|-----------------|-----------------|-----------------|-----------------|
|-0-0-000-0-000-00|-0-0-000-0-000-00|-0-0-000-0-000-00|-0-0-000-0-000-0-|

|---------------|--------------|--------------|---------------|
|---------------|--------------|--------------|---------------|
|---------------|--------------|--------------|---------------|
|-0-0-0-000-3-5-|-0-00-000-3-5-|-0-00-00-3-5-5|-3-55-3--0-0-3-|

|--------------|--------------|---------------|-------------|
|--------------|--------------|---------------|-------------|
|--------------|--------------|---------------|-------------|
|-0-00-000-3-5-|-0-00-000-3-5-|-0-0000000-3-5-|-3-5-3-00-0--|

|--------------|---------------|---------------|-----------------|
|--------------|---------------|---------------|-----------------|
|--------------|---------------|---------------|-----------------|
|-0---000-0--00|-0-000-000-3-5-|-0-000-000-3-5-|-0-000-000-00035-|

|-----------------|-----------------|-----------------|---------------|
|-----------------|-----------------|-----------------|---------------|
|-----------------|-----------------|-----------------|---------------|
|-0-0000000-00005-|-3-000-000-00005-|-0-0-00000-0-005-|-0-0-000-0-3-5-|

|----------------|--------------|---------------|-----------------|
|----------------|--------------|---------------|-----------------|
|----------------|--------------|---------------|-----------------|
|-0-00-000-2-3-5-|-0--0-000-5-3-|-0-000-000-3-5-|-0-000-000-3-3-5-|

|-----------------|----------------|----------------|----------------|
|-----------------|----------------|----------------|----------------|
|-----------------|----------------|----------------|----------------|
|-0-000-0000003-5-|-0-00-000-0-005-|-0-0000000--335-|-0-0000000-3-35-|

|----------------|---------------|---------------|--------------|
|----------------|---------------|---------------|--------------|
|----------------|---------------|---------------|--------------|
|-0-000-0-0-3-55-|-0-000-000-3-5-|-0--0-00-00035-|-0-00-00-3-55-|

|----------------|-------------|---------------|------------|
|----------------|-------------|---------------|------------|
|----------------|-------------|---------------|------------|
|-0-000-0-00-3-5-|-0-00-00-3-5-|-0-00-00-00335-|-0-00-----5-|

|--------------|-----------------|--------------|---------------*|
|--------------|-----------------|--------------|---------------*|
|--------------|-----------------|--------------|---------------*|
|-0-00--0-00-3-|-00-000-0-0003-5-|-0-00-00-00-5-|-0--0-0-0003-5-*| fade


---------------
Third Man Theme
---------------

Speeds up from around 132BPM to 144BPM, 4/4

Part A

|----------|----------|----------|----------|
|----------|----------|----------|----------|
|----------|----------|-5--------|-5--------|
|-3--------|-3--------|----------|----------|

|----------|-----------|-----------|----------|
|----------|-----------|-----------|----------|
|-5--------|-5---------|-----------|----------|
|----------|--------2--|-3----3----|-3--------|

|-----------|-----------|-----------|-----------|
|-5---------|-5---------|-----------|-----------|
|------5----|------5----|-5---------|-5---------|
|-----------|-----------|------5----|------5----|

|-----------|------------|----------|---------|
|-----------|------------|----------|---------|
|-5---------|-5----------|----------|---------|
|------5----|------2--5--|-3--------|---------|

|-----------|-----------|-----------|-----------|
|-5---------|-----------|-----------|------7----|
|------5----|------2----|-5---------|-5---------|
|-----------|-3---------|------5----|-----------|

|-----------|------------|-----------|-----------|
|-----------|------------|-----------|-----------|
|-5---------|-5----------|-----------|-----------|
|------5----|------0--2--|-3----3----|-3----3----|

|-----------|-------------|-------------|----------|
|-2---------|-2-----------|-------------|----------|
|------2----|----------2--|-------------|----------|
|-----------|----0--4-----|-0--2--3--4--|-5--------|

|-----------|-----------|----------|---------|
|-----------|-----------|----------|---------|
|-5---------|-5---------|----------|---------|
|------5----|------2----|-3--------|---------|

Part B

|-----------|-----------|-----------|----------|
|-5---------|-2---------|--------2--|----------|
|------5----|------2----|-5---------|----------|
|-----------|-----------|-----------|-3--------|

|-----------|-------------|-----------|-----------|
|-5---------|-2-----------|-----------|------4----|
|------5----|----2--3--4--|-5---------|---5-------|
|-----------|-------------|------5----|-----------|

|-----------|------------|-----------|------------|
|-----------|------------|-----------|------------|
|-5---------|-5----------|-5---------|-5----------|
|------5----|------2--5--|------5----|------2--5--|

|-----------|-------------|----------|---------|
|-----------|-------------|----------|---------|
|-5---------|-5-----------|----------|---------|
|------5----|----2--0--2--|-3--------|---------|

Part C

|-----------|-------------|-----------|------------|
|-5---------|-5-----------|-5---------|------4--2--|
|------5----|-------2--5--|------2----|-5----------|
|-----------|----3--------|-----------|------------|

|-----------|------------|------------|----------|
|-----------|------------|------------|----------|
|-5---------|-5----------|-5--5-------|----------|
|------5----|------2--5--|---------2--|-3--------|

|-----------|-------------|------------|------------|
|-5---------|-5-----------|-5----------|------4--2--|
|------5----|-------2--5--|------2--3--|-5----------|
|-----------|----3--------|------------|------------|

|-----------|------------|-------------|----------|
|-----------|------------|-------------|----------|
|-5---------|-5----5-----|-5-----------|----------|
|------5----|---------5--|----2--0--2--|-3--------|

Part A

|-----------|-----------|-----------|------------|
|-5---------|-5---------|-----------|------------|
|------5----|------2----|-5---------|-5----------|
|-----------|-----------|------5----|------2--5--|

|-----------|------------|-----------|----------|
|-----------|------------|-----------|----------|
|-5---------|-5----------|-----------|----------|
|------5----|------0--2--|-3----3----|-3--------|

|-----------|------------|-----------|------------|
|-5---------|-5----------|-----------|------------|
|------5----|------2--3--|-5---------|-5----5-----|
|-----------|------------|------5----|---------5--|

|-----------|-------------|----------|---------|
|-----------|-------------|----------|---------|
|-5---------|-5-----------|----------|---------|
|------5----|----2--0--2--|-3--------|---------|

|-----------|------------|-----------|-----------|
|-5---------|------------|-----------|-----------|
|------5----|------2--3--|-5---------|-5----5----|
|-----------|-3----------|------5----|-----------|

|-----------|-------------|------------|------------|
|-----------|-------------|------------|------------|
|-5---------|-5-----------|------------|---------5--|
|------5----|----0--2--0--|-3----3---x-|-3----3-----|

|-----------|------------|-------------|-----------|
|-2---------|-2----------|-------------|-----------|
|------2----|------2-----|-------------|------5----|
|-----------|---------4--|-0--2--3--4--|-5---------|

|-----------|------------|----------|-----------|
|-----------|------------|----------|-----------|
|-5---------|-5----------|----------|---5-------|
|------5----|------0--2--|-3--------|------3----|

|---------*|
|---------*|
|---------*|
|---------*|


-------------
Promised Land
-------------

160BPM, 4/4

Intro

|---------|---------|---------|---3---------|
|---------|---------|---------|-------------|
|---------|---------|---------|-------------|
|---------|---------|---------|------1-3-1--|

Verse

|---------------|-------------|---------------|--------------|
|---------------|-------------|-------------1-|--1-----------|
|-1-1---------1-|--1----------|-1-1----1--3---|----3--1-1-3--|
|-----3--1--3---|-----3-1--3--|-----3---------|--------------|

|----------------|----------------|--------------|---------------|
|----------------|----------------|--------------|---------------|
|----------------|----------------|-----------0--|-1-1-----------|
|-1-1-1-1-1-1-1--|-1-1-4-4-1-1--1-|-1-1-3--4-----|-----3--1-1-3--|

|---------------|-------------|---------------|--------------|
|---------------|-------------|-------------1-|--1-----------|
|-1-1---------1-|--1----------|-1-1----1--3---|----3--1-1-3--|
|-----3--1--3---|----3--1--3--|-----3---------|--------------|

|----------------|----------------|---------------|--------------|
|----------------|----------------|---------------|--------------|
|----------------|----------------|-----------0-1-|--1-----------|
|-1-1-4-4-1-1--1-|-1-1-4-4-1-1--1-|-1-1-3--4------|----3--1-1-3--|

|----------------|-------------|---------------|--------------|
|----------------|-------------|-------------1-|--1-----------|
|-1------------1-|--1----------|-1-1----1--3---|----3--1-1-3--|
|----3-3-1-1-3---|----3--1--3--|-----3---------|--------------|

|---------------|----------------|---------------|---------------|
|---------------|----------------|---------------|---------------|
|---------------|----------------|-----------0-1-|-1-1-----------|
|-1-1-1-1-1-1---|-1-1-4-4-1-1--1-|-1-1-3--4------|-----3--1-1-3--|

Solo

|----------------|--------------|----------------|--------------|
|----------------|--------------|--------------1-|--1-----------|
|-1-1----------1-|--1-----------|-1-1----1-1-3---|----3--1-1-3--|
|-----3--1-1-3---|----3--1-1-3--|-----3----------|--------------|

|---------------|---------------|-----------------|-------------|
|---------------|---------------|-----------------|-------------|
|---------------|---------------|-------------0-1-|--1----------|
|-1-1-4-4-1-1---|-1-1-4-4-1-1---|-1-1-3-3-4-4-----|----3--1--3--|

Verse

|---------------|---------------|--------------|--------------|
|---------------|---------------|------------1-|--1-----------|
|-1-----1-1---1-|--1------------|-1-----1--3---|----3--1-1-3--|
|----3------3---|----3--1-1-3-3-|----3---------|--------------|

|---------------|-----------------|-----------------|--------------|
|---------------|-----------------|-----------------|--------------|
|---------------|-----------------|-------------0-1-|--1-----------|
|-1-1-4-4-1-1---|-1-1-4-4-1-1-1-1-|-1-1-3-3-4-4-----|----3--1-1-3--|

|---------------|---------------|----------------|--------------|
|---------------|---------------|--------------1-|--1-----------|
|-1-1-----------|-1-1-----------|-1-1----1-1-3---|----3--1-1-3--|
|-----3--1-1-3--|-----3--1-1-3--|-----3----------|--------------|

|---------------|---------------|----------------|---------------|
|---------------|---------------|----------------|---------------|
|---------------|---------------|-------------0--|-1-1-----------|
|-1-1-4-4-1-1---|-1-1-4-4-1---1-|-1-1-3-3-4-4----|-----3--1-1-3--|

|----------------|---------------|-----------------|--------------|
|----------------|---------------|---------------1-|--1-----------|
|-1-1----------1-|--1------------|-1-1-----1-1-3---|----3--1-1-3--|
|-----3--1-1-3---|----3--1-1-3-3-|-----3-3---------|--------------|

|--------------|---------------|-----------------|----------------|
|--------------|---------------|-----------------|----------------|
|--------------|---------------|-------------0-1-|-1-1------------|
|-1-1-4-4-1----|-1-1-4-4-1-1---|-1-1-3-3-4-4-----|-----3--1-1-3-3-|

Solo

|----------|-----------|-------------|-------------|
|----------|-----------|-------------|-1-----------|
|-1--------|-----------|-1----4-4-4--|----3--1-----|
|----------|------1-3--|-------------|----------3--|

|---------------|----------------|----------------|-------------|
|---------------|----------------|----------------|-------------|
|---------------|----------------|------------0-1-|--1----------|
|-1-1-1-1-1-1---|-1-1-4-4-1-1--1-|-1-1-3-3-4------|----3--1--3--|

|--------------|--------------|----------------|--------------|
|--------------|--------------|--------------1-|--1-----------|
|-1----------1-|--1-----------|-1--------------|----3--1-1-3--|
|----3--1--3---|----3--1-1-3--|----3-3-1-1-3---|--------------|

|---------------|---------------|-----------------|--------------|
|---------------|---------------|-----------------|--------------|
|---------------|---------------|---------------1-|--1-----------|
|-1-1-4-4-1-1---|-1-1-4-4-1-1---|-1-1-3-3-4-4-4---|----3--1-1-3--|

Verse

|----------------|--------------|---------------|--------------|
|----------------|--------------|-------------1-|--1-----------|
|-1-1----------1-|--1-----------|-1-1----1--3---|----3--1-1-3--|
|-----3--1-1-3---|----3--1-1-3--|-----3---------|--------------|

|---------------|--------------|-----------------|--------------|
|---------------|--------------|-----------------|--------------|
|---------------|--------------|-------------0-1-|--1-----------|
|-1-1-4-4-1-1---|-1-1-4-4-1----|-1-1-3-3-4-4-----|----3--1-1-3--|

|---------------|--------------|-----------------|--------------|
|---------------|--------------|---------------1-|--1-----------|
|-1-----------1-|--1-----------|-1-1-----1-1-3---|----3--1-1-3--|
|----3--1-1-3---|----3--1-1-3--|-----3-3---------|--------------|

|---------------|---------------|----------------|-----------------|
|---------------|---------------|----------------|-----------------|
|---------------|---------------|-------------0--|-1-1-------------|
|-1-1-4-4-1-1---|-1-1-4-4-1-1---|-1-1-3-3-4-4----|-----3-3-1-1-3-3-|

|---------------|----------------|---------------|----------------|
|---------------|----------------|-------------1-|--1-------------|
|-1-1-----------|-1-1------------|-1-1----1-3----|----3-3-1-1-3-3-|
|-----3-1--1-3--|-----3-3-1-1-3--|-----3---------|----------------|

|---------------|----------------|-----------------|--------------|
|---------------|----------------|-----------------|--------------|
|---------------|----------------|-------------0-1-|--1-----------|
|-1-1-4-4-1--1--|-1-1-4-4-1--1-1-|-1-1-3-3-4-4-----|----3--1-1-3--|

Solo

|---------------|--------------|----------------|---------------|
|---------------|--------------|--------------1-|--1------------|
|-1-----------1-|--1-----------|-1-1----1-1-3---|----3-3-1-1-3--|
|----3--1-1-3---|----3--1-1-3--|-----3----------|---------------|

|---------------|---------------|-----------------|--------------|
|---------------|---------------|-----------------|--------------|
|---------------|---------------|-------------0-1-|--1-----------|
|-1-1-4-4-1-1---|-1-1-4-4-1-1---|-1-1-3-3-4-4-----|----3--1-1-3--|

|---------------|---------------|---------------|-------------|
|---------------|---------------|-------------1-|--1----1-----|
|-1-1----1----1-|-1-1----1----1-|-1-1----1--3---|----3-----3--|
|-----3-----3---|-----3-----3---|-----3---------|-------------|

|--------------|--------------|-----------------|--------------|
|--------------|--------------|-----------------|--------------|
|--------------|--------------|-------------0-1-|--1-----------|
|-1-1-1--1---1-|-1-1-4--1---1-|-1-1-3-3-4-4-----|----3--1-1-3--|

|-------------|---------*|
|-------------|---------*|
|-1------1----|---------*|
|----1-3------|---------*|


-------------------
The Great Pretender
-------------------

204BPM, 3/4

Intro

|-------|-------|-------|-------|-------|-------|-------|----------|
|-------|-------|-------|-------|-------|-------|-------|-5-----2--|
|-------|-------|-------|-------|-------|-------|-------|----3-----|
|-------|-------|-------|-------|-------|-------|-------|----------|

Verse

|--------|----------|--------|--------|--------|---------|--------|-------|
|--------|-------2--|--------|--------|--------|------2--|--------|-------|
|-5------|-5--5-----|--------|--------|-3------|-3-------|-5------|-------|
|--------|----------|-5------|-5------|--------|---------|--------|-------|

|--------|--------|--------|--------|--------|--------|---------|---------|
|--------|--------|--------|--------|--------|--------|---------|------2--|
|--------|--------|-5------|-5------|--------|--------|---------|---------|
|-3------|-3------|--------|--------|-3------|-3------|-5----3--|-5-------|

|---------|---------|---------|---------|---------|---------|---------|--------|
|---------|-2----2--|-5----5--|-2-------|---------|---------|---------|--------|
|-3----3--|---------|---------|------5--|---------|-2----2--|-5--5----|-5------|
|---------|---------|---------|---------|-3----3--|---------|---------|--------|

|--------|--------|--------|--------|--------|--------|--------|--------|
|--------|--------|--------|--------|-5------|-5------|--------|--------|
|-3------|-3------|-5------|-5------|--------|--------|-3------|-3------|
|--------|--------|--------|--------|--------|--------|--------|--------|

|--------|--------|--------|--------|--------|--------|---------|--------|
|--------|--------|--------|--------|--------|--------|---------|--------|
|--------|--------|-5------|-5------|--------|--------|-/5------|-5------|
|-3------|-3------|--------|--------|-3------|-3------|---------|--------|

Verse

|--------|--------|--------|--------|--------|--------|---------|---------|
|--------|--------|--------|--------|--------|--------|---------|------2--|
|--------|--------|-5------|-5------|--------|--------|---------|---------|
|-3------|-3------|--------|--------|-3------|-3------|-5----3--|-5-------|

|---------|---------|---------|---------|---------|---------|--------|---------|
|---------|-2----2--|-5----5--|-2-------|---------|---------|--------|------2--|
|-3----3--|---------|---------|------5--|---------|-2----2--|-5------|-5-------|
|---------|---------|---------|---------|-3----3--|---------|--------|---------|

|--------|---------|--------|--------|--------|--------|--------|--------|
|--------|---------|--------|--------|-5------|-5------|--------|--------|
|-3------|-3----3--|-5------|-5------|--------|--------|-3------|-3------|
|--------|---------|--------|--------|--------|--------|--------|--------|

|--------|--------|--------|---------|--------|---------|---------|---------|
|--------|--------|--------|------2--|--------|---------|---------|---------|
|--------|--------|-5------|-5-------|--------|---------|---------|------2--|
|-3------|-3------|--------|---------|-3------|-3----3--|-5----3--|-5-------|

Bridge

|--------|--------|--------|--------|---------|---------|--------|---------|
|--------|--------|--------|--------|---------|---------|--------|------2--|
|-3------|-3------|-3------|-3------|---------|-2----2--|-5------|-5-------|
|--------|--------|--------|--------|-3----3--|---------|--------|---------|

|--------|--------|--------|--------|--------|---------|--------|----------|
|--------|--------|--------|--------|--------|---------|--------|----------|
|-3------|-3------|-3------|-3------|--------|-2----2--|-5------|-5--2-----|
|--------|--------|--------|--------|-3------|---------|--------|-------5--|

|---------|-------|
|---------|-------|
|-/5------|-------|
|---------|-------|

Verse

|--------|--------|--------|--------|--------|--------|---------|---------|
|--------|--------|--------|--------|--------|--------|---------|------2--|
|--------|--------|-5------|-5------|--------|--------|---------|---------|
|-3------|-3------|--------|--------|-3------|-3------|-5----3--|-5-------|

|---------|---------|---------|---------|---------|---------|--------|---------|
|---------|-2----2--|-5----5--|---------|---------|---------|--------|------2--|
|-3----3--|---------|---------|-3----5--|---------|-2----2--|-5------|-5-------|
|---------|---------|---------|---------|-3----3--|---------|--------|---------|

|--------|--------|--------|--------|--------|--------|--------|--------|
|--------|--------|--------|--------|-5------|--------|--------|--------|
|-3------|---3----|-5------|-5------|--------|--------|-3------|-3------|
|--------|--------|--------|--------|--------|-3------|--------|--------|

|--------|---------|--------|----------|--------|--------|--------|---------|
|--------|---------|--------|----------|--------|--------|--------|---------|
|--------|-2----3--|-5------|-5--4--3--|-2------|-2------|-2------|-/3------|
|-3------|---------|--------|----------|--------|--------|--------|---------|

|--------|--------|---------|---------|--------|--------|---------|--------|
|--------|--------|---------|---------|--------|--------|---------|--------|
|-5------|---5----|-5----5--|---5--5--|--------|--------|---------|--------|
|--------|--------|---------|---------|-3------|-----3--|-5----3--|-5------|

Bridge

|--------|--------|--------|--------|---------|---------|--------|-------|
|--------|--------|--------|--------|---------|---------|--------|-------|
|-3------|-3------|-3------|-3------|---------|-2----2--|-5------|-------|
|--------|--------|--------|--------|-3----3--|---------|--------|-------|

|--------|--------|---------|--------|--------|----------|--------|---------|
|--------|--------|---------|--------|--------|----------|--------|---------|
|-3------|-3------|-3----3--|-3------|--------|-2----3-3-|-5------|---2-----|
|--------|--------|---------|--------|-3------|----------|--------|------5--|

|----------|---------|
|-------2--|----2----|
|-/5-------|-5-------|
|----------|---------|

Verse

|--------|--------|--------|--------|--------|--------|---------|---------|
|--------|--------|--------|--------|--------|--------|---------|------2--|
|--------|--------|-5------|-5------|--------|--------|---------|---------|
|-3------|-3------|--------|--------|-3------|-3------|-5----3--|-5-------|

|---------|---------|---------|---------|---------|---------|--------|-------|
|---------|-2----2--|-5----5--|-2-------|---------|---------|--------|-------|
|-3----3--|---------|---------|------5--|---------|-2----2--|-5------|-------|
|---------|---------|---------|---------|-3----3--|---------|--------|-------|

|--------|--------|--------|---------|--------|-------|--------|--------|
|--------|--------|--------|---------|-5------|-------|--------|--------|
|-3------|-----3--|-5------|-5----5--|--------|-------|-3------|-3------|
|--------|--------|--------|---------|--------|-------|--------|--------|

|--------|---------|--------|----------|--------|--------|--------|----------|
|--------|---------|--------|----------|--------|--------|--------|----------|
|--------|-2----3--|-5------|-5--4--3--|-2------|-2------|-2------|----2--3--|
|-3------|---------|--------|----------|--------|--------|--------|-5--------|

|--------|--------|---------|--------|--------|---------|--------|---------|
|--------|--------|---------|--------|--------|---------|--------|---------|
|-5------|---5----|-5----5--|-----5--|--------|---------|--------|---------|
|--------|--------|---------|--------|-3------|-3----3--|-5------|-5----5--|

|--------|--------|--------|---------|--------|---------|--------|---------|
|--------|--------|--------|---------|--------|---------|--------|---------|
|-2------|-2------|-3------|-3----3--|-5------|---2--3--|-5------|-5-------|
|--------|--------|--------|---------|--------|---------|--------|------0--|

|--------|-------|-------|-------|-------|-------|-------|-------*|
|--------|-------|-------|-------|-------|-------|-------|-------*|
|--------|-------|-------|-------|-------|-------|-------|-------*|
|-3------|-------|-------|-------|-------|-------|-------|-------*|


---------
I'm Ready
---------

160BPM, 4/4

Intro

|---------|---------|
|---------|---------|
|---------|---------|
|---------|---------|

|-------------|--------------|-------------|--------------|
|-------------|--------------|-------------|--------------|
|-3-----------|-3-3-------3--|-3-----------|-3-3-------3--|
|----0--3--5--|-----5--3-----|----0--3--5--|-----5--3-----|

|--------------|---------------|--------------|--------------|
|--------------|---------------|--------------|--------------|
|--------3--5--|--------3-3----|-3-3----------|-3-3----------|
|-1--5-5-------|-1-1-5------5--|-----0--3--5--|-----5--3--0--|

|---------------|---------------|-------------|---------------|
|------------2--|---------------|-------------|---------------|
|-----2--5-5----|-----0--1-1-2--|-3-----------|-3-------------|
|-3-3-----------|-3-3-----------|----0--3--5--|---3--3-3-3-3--|

Chorus

|--------------|--------------|--------------|-------------|
|--------------|--------------|--------------|-------------|
|-3------------|-3------------|-3------------|-3-----------|
|----0-0-3--5--|----0-0-3--5--|----5-5-3--5--|----6--5--3--|

|--------------|---------------|--------------|--------------|
|--------------|---------------|--------------|--------------|
|--------3--5--|--------3----3-|-3-3----------|-3-3----------|
|-1-1-5--------|-1-1-5-----5---|-----5--3--5--|-----5--3--0--|

|-------------|---------------|--------------|--------------|
|----------2--|---------------|--------------|--------------|
|----2--5-----|-----0-0-1--2--|-3-3----------|-3-3----------|
|-3-----------|-3-3-----------|-----5--3--5--|-----5--3--5--|

|--------------|---------------|---------------|--------------|
|--------------|---------------|---------------|--------------|
|-3------------|-3-3-----------|-3-------------|-3------------|
|----0-0-3--5--|-----5--3--5-5-|----0-0-3--5-5-|----5-5-3--5--|

|--------------|--------------|---------------|---------------|
|--------------|--------------|---------------|---------------|
|--------3--5--|--------3--5--|-3-3-----------|-3-3-----------|
|-1-1-5--------|-1-1-5--------|-----5-5-3--5--|-----5-5-3--5--|

|--------------|-------------|--------------|---------------|
|-----------2--|-------------|--------------|---------------|
|----2--5-5----|----0--1--2--|-3-3----------|-3-3-----------|
|-3------------|-3-----------|-----5--3--5--|-----5-5-3--0--|

Bridge

|-------------|---------------|-------------|-------------|
|-------------|---------------|-------------|-------------|
|-------3--5--|-3-3-----------|-------3--5--|-3-----------|
|-1--5--------|-----5-5-3--0--|-1--5--------|----5--3--0--|

|-------------|-------------|-------------|---------------|
|-------------|-------------|-------------|---------------|
|-------3--5--|-3-----------|-------------|-------------2-|
|-1--5--------|----5--3--0--|-3---3-3---3-|-3-3-3---3-5---|

Chorus

|---------------|--------------|-------------|-------------|
|---------------|--------------|-------------|-------------|
|-3-------------|-3-3----------|-3-----------|-3--------3--|
|----0-0-3-3-5--|-----5--3--5--|----5--3--5--|----5--3-----|

|---------------|----------------|---------------|-------------|
|---------------|----------------|---------------|-------------|
|--------3-3-5--|---------3-3-5--|-3-3-----------|-3--------3--|
|-1-1-5---------|-1-1-5-5--------|-----5-5-3--5--|----5--3-----|

|-------------|---------------|-------------|-------------|
|----------2--|---------------|-------------|-------------|
|----2--5-----|---------------|-3-----------|-3-----3-----|
|-3-----------|-3--3-3-3-3-5--|----5--3--5--|----5-----3--|

Solo

|----------------|---------------|----------------|---------------|
|----------------|---------------|----------------|---------5--7--|
|-3-3------------|-3-3-----------|-3-3--3-3-3-3-3-|-3S5-7-8-------|
|-----0-0-3--5-5-|-----5--3--5-5-|----------------|---------------|

|--------------|---------------|---------------|----------------|
|-3-3----------|---------------|---------------|----------------|
|--------3--5--|---------3--5--|-3-3-----------|-3-3------------|
|-----5--------|-1-1-5-5-------|-----5-5-3--5--|-----0-0-3--5-5-|

|---------------|---------------|----------------|---------------|
|-----------2-2-|---------------|----------------|---------------|
|-----2--5------|-----0-0-1--2--|-3-3------------|-3-3-----------|
|-3-3-----------|-3-3-----------|-----5-5-3--5-5-|-----5-5-3---5-|

|--------------|--------------|----------------|---------------|
|--------------|--------------|----------------|---------------|
|-3----------3-|--3---------3-|-3-3----------3-|-3-3-----------|
|----0--3--5---|----0--3--5---|-----0-0-3--5---|-----0-0-3--5--|

|------------|---------------|----------------|-----------------|
|------------|---------------|----------------|-----------------|
|------------|---------------|-3--3-3-3-3-3-3-|-3-3-3-3-3-3-3-3-|
|-1----1---1-|-1-1--1-1-1--5-|----------------|-----------------|

|-------------|-------------|--------------|----------------|
|----------2--|-------------|--------------|----------------|
|----2--5-----|----0--1--2--|-3------------|-3-3---------3--|
|-3-----------|-3-----------|----0-0-3--5--|-----5-5-3-3----|

Bridge

|-------------|---------------|-------------|--------------|
|-------------|---------------|-------------|--------------|
|-------3--5--|-3-3-----------|-------3--5--|-3------------|
|-1--5--------|-----5-5-3--0--|-1--5--------|----5--3--0-0-|

|-------------|--------------|----------------|----------------|
|-------------|--------------|----------------|----------------|
|-------3--5--|-3------------|----------------|----------------|
|-1--5--------|----5--3--0-0-|-3--3-3-3-3-3-3-|-3-3-3-3-3-3-3--|

Chorus

|--------------|---------------|---------------|--------------|
|--------------|---------------|---------------|--------------|
|-3------------|-3-3-----------|-3-3-----------|-3------------|
|----0-0-3--5--|-----5-5-3--5--|-----0-0-3--5--|----6--5-5-3--|

|---------------|---------------|---------------|--------------|
|---------------|---------------|---------------|--------------|
|--------3-3-5--|--------3-3-5--|-3-3-----------|-3-3----------|
|-1-1-5---------|-1-1-5---------|-----5-5-3--5--|-----0--3--5--|

|-------------|---------------|--------------|--------------|
|----------2--|---------------|--------------|--------------|
|----2--5-----|-----0-0-1--2--|-3------------|-3---------3--|
|-3-----------|-3-3-----------|----5--3--5-5-|----5-5-3-----|

Solo/Ending

|--------------|--------------|--------------|--------------|
|--------------|--------------|--------------|--------------|
|-3---------3--|-3---------3--|-3---------3--|-3---------3--|
|----0-0-3-----|----0-0-3-----|----0-0-3-----|----5-5-3-----|

|-------------|--------------|-------------|----------------|
|-------------|--------------|-------------|----------------|
|-------------|--------------|-3---3-3---3-|-3-3--3-3-------|
|-1---1-1---1-|-1-1--1-1-1---|-------------|----------0-1-2-|

|-------------|----------------|--------------|-------------|
|----------2--|----------------|--------------|-------------|
|----2--5-----|-----0-0-1-1-2--|-3------------|-3-----------|
|-3-----------|-3-3------------|----5--3--5-5-|----5--3--5--|

|----------2--|-------------|-----------2---|-------------|
|----2--5-----|-------------|-----2--5------|-------------|
|-3-----------|-3-----------|-3-3---------3-|-3-----------|
|-------------|----0--3--5--|---------------|----6--5--3--|

|--------------|-------------|---------------|----------------|
|--------------|-------------|---------------|----------------|
|-------3-3-5--|-------3--5--|-3-3--------3--|-3-3------------|
|-1--5---------|-1--5--------|-----5-5-3-----|-----5-5-3--0-0-|

|----------------|-----------------|----------------|----------------|
|------------2---|-----------------|----------------|----------------|
|-----2--5-5-----|-----0-0-1-1-2-2-|-3-3--3-3-3-3-3-|-3--3-3-3-3-3-3-|
|-3-3----------3-|-3-3-------------|----------------|----------------|

|----------------|---------------|--------------|----------------|
|----------------|---------------|--------------|----------------|
|-3-3------------|-3---3-3-----2-|-3----------3-|-3-3--3-3-3-3-5-|
|-----0--3-3-5-5-|---------3-5---|----5--3--5---|----------------|

|----------------|-----------------|--------------|---------------|
|----------------|-----------------|--------------|---------------|
|----------------|-----------------|-3-3---3-3--3-|-3-3-3-3-3-----|
|-1-1-1-1-1-1--1-|-1-1-1-1-1-1-1-1-|--------------|-------------5-|

|--------------|----------------|-------------|------------|
|----------2---|----------------|-------------|------------|
|----2--5------|-----0-0-1-1-2--|-3--3---3--3-|-------3----|
|-3----------3-|-3-3------------|-------------|--5-3-------|

|---------|---------*|
|---------|---------*|
|---------|---------*|
|---------|---------*|


-----
Saved
-----

132BPM, 4/4

Intro

|---------|---------|---------|------------|
|---------|---------|---------|----------2-|
|---------|---------|---------|------3-5---|
|---------|---------|---------|------------|

Verse

|-----------------|-----------------|---------------|---------------|
|-3-------3-0-1-2-|-3-------3-------|---------------|---------------|
|-----3-5---------|---3---3---0-1-2-|--3-3-33-0-1-2-|--3-3-33-------|
|---5-------------|-----5-----------|---------------|---------0-1-2-|

|----------------|----------------|-------------|--------------|
|--------5-5-----|----------------|-------------|--------------|
|----2-5-----2---|------0-3-0-1-2-|-3-----0-1-2-|-3---33-0-1-2-|
|-3------------3-|-1--3-----------|-------------|--------------|

Chorus

|-----------------|--------------|-------------|-------------|
|-----------------|--------------|-------------|-------0-1-2-|
|-3-33-33-3-33-33-|-3--33-3--0-2-|-3---3-3---3-|-3---3-------|
|-----------------|--------------|-------------|-------------|

|----------------|-----------------|----------------|-----------------|
|-3-3--3-3-3-3-3-|-3-3-3-3-3-3-3---|----------------|-----------------|
|----------------|---------------2-|-3-3-3-3--0-1-2-|-3-3-3-3-3-------|
|----------------|-----------------|----------------|-----------0-1-2-|

|--------------|--------------|-------------|--------------|
|--------------|--------------|-------------|--------------|
|--------------|--------------|--3--3--3--3-|-3--3--30-1-2-|
|-3---33-33-33-|-1-11-1---3-5-|-------------|--------------|

Verse

|-------------|-------------|-------------|-------------|
|-------------|-------------|-------------|-------0-1-2-|
|-3-----0-1-2-|-3-----0-1-2-|-3-----0-1-2-|-3-----------|
|-------------|-------------|-------------|-------------|

|-----------------|-----------------|----------------|---------------|
|-3---------0-1-2-|-3---------------|----------------|---------------|
|---0-1-2-3-------|---0-1-2-3-0-1-2-|-3---3-33-0-1-2-|-3---3-3-------|
|-----------------|-----------------|----------------|---------0-1-2-|

|-----------------|-----------------|-------------|-------------|
|-------2-5-----2-|-----------------|-------------|-------------|
|---2-5-----2-5---|-----0-1-3-0-1-2-|-3-----0-1-2-|-3-----0-1-2-|
|-3---------------|-1-3-------------|-------------|-------------|

Chorus

|--------------|-------------|-------------|-5-----------|
|--------------|-------------|-------2--5--|-------0-1-2-|
|-3---33-33-3--|-3--3--3--3--|-3--3--------|-------------|
|--------------|-------------|-------------|-------------|

|-----------------|----------------|--------------|--------------|
|-3---------0-1-2-|-3-3-3-33-3-----|--------------|--------------|
|---0-1-2-3-------|------------1-2-|-3--3---0-1-2-|-3-3--33-3--5-|
|-----------------|----------------|--------------|--------------|

|-------------|--------------|-------------|------------|
|-------------|--------------|-------------|------------|
|-------------|--------------|-3--3--3--3--|-3--3--3----|
|-3--3---3--3-|-1-1--1--1--1-|-------------|------------|

Break

|-----------|-----------|-----------|-------------|
|-----------|-----------|-----------|-----------2-|
|---3--3----|---3--3----|---3----3--|-3-----3-5---|
|-----------|-----------|-----------|-------------|

Solo

|-----------------|-----------------|-----------------|-------2-------|
|-3-----0-3-0-1-2-|-3---------------|-----------------|---------------|
|---0-3-----------|---0-3---3---3---|-3-------3-0-1-2-|-3-------3---5-|
|-----------------|-------5---5---5-|---0-3-5---------|---0-3---------|

|--------------|----------------|-------------|------------2-|
|------------2-|--------------3-|-------------|--------2-5---|
|--------2-5---|----------3-5---|-3-----------|-3----3-------|
|-3----3-------|-1--1-1-5-------|-------0-3-5-|--------------|

|-5--5-5------2-|----------------|-------------2-|--------------|
|---------2-5---|----------------|---------2-5---|--------------|
|---------------|-3-3-3-33-------|-3-33-3--------|-3---33-------|
|---------------|---------0-3-5--|---------------|--------330-3-|

|---------------|----------------|-------------2-|---------------|
|---------------|----------------|---------2-5---|---------------|
|-----------3-5-|----------------|-3--3-3--------|-3--3----------|
|-1--1-1--5-----|-1-1-1-1-1--5-3-|---------------|-------3-0-1-2-|

|----------------|----------------|-----------------|---------------|
|----------------|----------------|-----------------|---------------|
|----------------|------------3-5-|-3-------3-0-1-2-|-3--3--3-0-1-2-|
|-3-3-3-33-3-3-2-|-1--1-1-1-5-----|---3-0-3---------|---------------|

Verse

|---------------|---------------|---------------|---------------|
|---------------|---------------|---------------|---------0-1-2-|
|-3--3--3-0-1-2-|-3--3--3-0-1-2-|-3--3--3-0-1-2-|-3--3--3-------|
|---------------|---------------|---------------|---------------|

|-----------------|-----------------|-------------|-------------|
|-3---------0-1-2-|-3---------------|-------------|-------------|
|---0-1-2-3-------|---0-3-0-3-0-333-|-3-----0-3-0-|-3-----------|
|-----------------|-----------------|-------------|-------0-1-2-|

|-----------------|-----------------|-------------|-----------------|
|-------5-5-2---2-|-----------------|-------------|-----------------|
|---2-5-------5---|---0-1-2-3-0-3-0-|-3-----0-1-2-|-3-------3-0-1-2-|
|-3---------------|-1---------------|-------------|---0-3-5---------|

Chorus

|-------------|--------------|--------------|---------------|
|-------------|--------------|--------------|---------0-1-2-|
|-3---3-3--3--|-3--3--3-3-3--|-3--3-3--3-3--|-3-3-3-3-------|
|-------------|--------------|--------------|---------------|

|-----------------|--------------|--------------|-------------|
|-3---------0-1-2-|-3---3--3-3-3-|--------------|-------------|
|---0-1-2-3-------|--------------|-3---3--0-1-2-|-3---3--33-5-|
|-----------------|--------------|--------------|-------------|

|--------------|----------------|-------------|---------------|
|--------------|----------------|-------------|---------------|
|--------------|----------0-3-0-|-3---3--3--3-|-3---3-3-0-1-2-|
|-3---3--3-3-3-|-1--1-1-1-------|-------------|---------------|

|--------------|--------2-3-4-|-5---5------2-|----------------|
|--------------|--------------|--------2-5---|----------0-1-2-|
|-3---3--0-1-2-|-3---3--------|--------------|-3--3-3-3-------|
|--------------|--------------|--------------|----------------|

|-----------------|-----------------|--------------|---------------|
|-3---------0-1-2-|-3---------------|--------------|---------------|
|---0-1-2-3-------|---0-1-2-3-0-1-2-|-3---3--0-1-2-|-3-3--3--------|
|-----------------|-----------------|--------------|---------0-1-2-|

|----------------|---------------|--------------2-|---------------2-|
|----------------|---------------|----------2-5---|-----------2-5---|
|----------------|---------0-1-2-|-3-333-33-------|-3-333-3-3-------|
|-3-333-33-3-3-3-|-1--1-1--------|----------------|-----------------|

|-5---5------2-|---------------2-|-5---55-----2-|--------------|
|--------2-5---|-----------2-5---|--------2-5---|--------------|
|--------------|-3-333-3-3-------|--------------|-3---3--------|
|--------------|-----------------|--------------|--------5-3-5-|

|---------------|----------------|---------------|----------------|
|---------------|----------------|---------------|----------2-3-4-|
|---------------|-----------0--2-|-3--3-3--------|-3-3-3-3--------|
|-1-1--1-1-1--1-|-1-1-3-1-1------|---------0-3-5-|----------------|

|--------------|-----------------|--------------|-----------------|
|-5---5--0-1-2-|-3---------------|--------------|-----------------|
|--------------|---0-1-2-3-0-1-2-|-3---3--0-1-2-|-3-3-3-3-3-0-1-2-|
|--------------|-----------------|--------------|-----------------|

|-----------------|-----------------*|
|-----------------|-----------------*|
|-3-3-3-3-3-0-1-2-|-3-3-3-3-3-0-1-2-*|
|-----------------|-----------------*| fade


----------------------
A Change Is Gonna Come
----------------------

100BPM, 4/4

Intro

|---------|---------|-------------|-----------|
|---------|---------|-------------|-----------|
|---------|---------|-6--5--3--1--|-----------|
|---------|---------|-------------|-2----1----|

Verse/Chorus

|----------|----------|----------|-----------|
|----------|----------|----------|-----------|
|-1--------|-1--------|-1--------|-5------5--|
|----------|----------|----------|-----------|

|-----------|----------|----------|------------|
|-----------|----------|----------|------------|
|-3----3----|-3--------|-1--------|------------|
|-----------|----------|----------|-1----3--5--|

|----------|----------|----------|-----------|
|----------|----------|----------|-----------|
|-1--------|-1--------|-3--------|------5----|
|----------|----------|----------|-5---------|

|-----------|----------|----------|----------|
|-----------|----------|----------|----------|
|-----------|----------|-1--------|----------|
|-3----3----|-1--------|----------|-1--------|

Verse/Chorus

|----------|----------|----------|-----------|
|----------|----------|----------|--------5--|
|-1--------|-1--------|-1--------|-5---------|
|----------|----------|----------|-----------|

|----------|----------|----------|----------|
|----------|----------|----------|----------|
|-3--------|-3--------|----------|----------|
|----------|----------|-3--------|-1--------|

|----------|-----------|----------|-----------|
|----------|-----------|----------|-----------|
|-1--------|-1------5--|-3--------|------5----|
|----------|-----------|----------|-5---------|

|----------|-----------|--------3--|------------|
|----------|-----------|-----------|---5-----3--|
|----------|-----------|-1---------|------5-----|
|-3--------|-1------3--|-----------|------------|

Bridge

|----------|-----------|------------|--------------|
|----------|-----------|------------|--------------|
|-3--------|-3------1--|------------|-----------1--|
|----------|-----------|-3------1-2-|-3-3-3--3-----|

|----------|----------|------------|--------------|
|----------|----------|------------|--------------|
|-3--------|-3--------|------------|-----------1--|
|----------|----------|-3------1-2-|-3-3-3--3-----|

|----------|-----------|----------|-------------|
|----------|-----------|----------|-------5-----|
|-3--------|-3------1--|----------|---------5---|
|----------|-----------|-3--------|-3-----------|

|----------|------------|-----------|------------|
|----------|---------2--|-3---------|------------|
|-3--------|-3----3-----|------6----|-5----3-----|
|----------|------------|-----------|---------1--|

Verse/Chorus

|----------|----------|----------|-------------|
|----------|----------|----------|-------------|
|-1--------|-1--------|-5--------|-5----10--8--|
|----------|----------|----------|-------------|

|----------|-----------|----------|------------|
|----------|-----------|----------|------------|
|-3--------|-3------1--|----------|------------|
|----------|-----------|-3--------|-1----1-3-5-| < last three 8ths dotted

|----------|------------|-----------|-------------|
|----------|---------3--|-----------|-------------|
|-1--------|-1----5-----|-3------3--|-------5--5--|
|----------|------------|-----------|-5--5--------|

|----------|------------|-----------|-3------------|
|----------|------------|-----------|----5---------|
|----------|------------|-1----1----|-------8\--5--|
|-3--------|-1----1--3--|-----------|--------------|

Solo

|------------|--------------|-----------|-------------|
|------------|--------------|-----------|-3-5---5-----|
|-3------1-2-|-3-3-3--3--1-x|---------5-|----------5--|
|------------|--------------|-3---------|-------------|

|------------|-------------|------------|--------------|
|------------|-------------|--------3---|-3-5----------|
|-3------1---|-1-3---3--1--|----------5-|----------1--/|
|----------3-|-------------|-3----------|-------3------|

|-----------|------------|-----------|------------|
|-----------|------------|-----------|------5-----|
|-3---------|-3----3--1--|-----------|--------5---|
|---------3-|------------|-3------1--|-3----------|

|------------|-5-----------|-------------|------------|
|----------5-|----5--2-----|-3---3-1--1--|------------|
|-3----3-----|----------3--|-------------|-5--3-------|
|------------|-------------|-------------|-------1----|

Verse/Chorus

|----------|----------|-----------|------------|
|----------|----------|-----------|------5--3--|
|-1--------|-1--------|-/5--------|-1----------|
|----------|----------|-----------|------------|

|----------|------------|----------|------------|
|----------|------------|----------|------------|
|-3--------|-3------1---|----------|------------|
|----------|----------1-|-3--------|-1---x1--3--|

|----------|--------------|-----------|-----------|
|----------|----------/5--|-----------|-----------|
|-1--------|-1----/5------|-3------3-x|------5----|
|----------|--------------|-----------|-5---------|

|-----------|-----------|-----------|------------|
|-----------|-----------|-----------|------------|
|-----------|-----------|-----------|------------|
|-3----3----|-3----3----|-1----1----|-1----3--5--|

|----------|---------|-------------|-----------|
|----------|---------|-------------|-----------|
|-1--------|---------|-6--5--3--1--|-----------|
|----------|---------|-------------|-1----1----|

|----------*|
|----------*|
|-1--------*|
|----------*|


----------
Tabbed by W.g.Wilson (199X) using Powertab Editor.
I make no money from the writing of these tabs.
Добавлено: 12.11.2013
Другие материалы по этой песне:
  • Аккорды и текст

Страница создана 12.11.2013
http://primanota.ru/the-band/moondog-matinee-album-chords.htm
Привет, Гость.
Предлагаем пройти революционный курс по гитаре.
Подарок от PrimaNota.Ru, забирай!