PrimaNota.ru - самый крупный в мире бесплатный архив песенных текстов, аккордов, табулатур и нот


Band - Get Up Jake - текст песни, таба, видео

Регистрация Запомнить меня
Войти через:  Facebook Google Twitter Vk Yandex Mail.ru

Band - Get Up Jake - текст песни, таба, видео

Печатать
Просмотров: 115
Авторы музыки: Robbie Robertson
Авторы текста: Robbie Robertson
Artist: The Band
Song: Get Up Jake
Album: The Band

This tab is based on the studio outtake available on the 2000 re-release of The Band's 
self-titled album.  The chords are from http://theband.hiof.no/lyrics/get_up_jake.html, 
the tab is my own.

Tuning: EADGBE (Standard)

***TAB***

Intro:

Guitar 1
E-------|
B-------|
G-------| x16
D-------|
A-------|
E--3h5--|

Guitar 2
E------5----------5--|
B---------------5----|
G--5h6------5h6------| x2
D--------------------|
A--------------------|
E--------------------|

The rest of the song features only one guitar part.

Chorus:
E-------------------------------------------------5-7--7/9--|
B------------------------------7----------5--5-7------------|
G--5h6-5h6------7----------------7-----6---------------7/9--|
D----------7----7h9-7---7h9---------------------------------|
A---------------------9-------------------------------------|
E-----------------------------------------------------------|

E------------------------5---5-----|
B-----------------7------5h7-5-----|
G--7-------7--------7--------------|
D--7h9-7---7h9------------------7--|
A--------9-------------------------|
E----------------------------------|

Final Chorus:
E-------------------------------------------------5-7--7/9--|
B------------------------------7----------5--5-7------------|
G--5h6-5h6------7----------------7-----6---------------7/9--|
D----------7----7h9-7---7h9---------------------------------|
A---------------------9-------------------------------------|
E-----------------------------------------------------------|

E-------------------7----------------------------|
B-------------------7---12b14-12b14-12b14r12p10--|
G--7-------7------7------------------------------|
D--7h9-7---7h9-----------------------------------|
A--------9---------------------------------------|
E------------------------------------------------|

Verse:
E--5----3----2----/9--/9--5----3----2----5--|
B--5----3----3------------5----3----3----5--|
G-----------------/9--/9--------------------|
D-------------------------------------------|
A-------------------------------------------|
E-------------------------------------------|

E--5----3----2----/9--/9--5----3----2---------5--------|
B--5----3----3------------5----3----3-------5----------|
G-----------------/9--/9-----------------/6-----5b6----|
D---------------------------------------------------7--|
A------------------------------------------------------|
E------------------------------------------------------|


***CHORDS***


Chorus:
A                  Bm
Get Up, Jake, it's late in the mornin'
    D                         A
the rain is pourin' and we got work to do.
                      Bm
Get Up, Jake, there's no need a-lyin',
    D                                A
You tell me that you're dyin', but I know it's not true.

A            G                 D          A
 Now, me and Jake, we work down on the river,
       G         D       A
on the ferry "Baltimore".
             G         D           A
And when Jake don't rise up in the mornin',
       G             D              A
People lined up all along the shore.

(Chorus)

Crap game will take you to the cleaners,
Rye whiskey to the grave.
River Woman don't you come no closer,
'Cause me and Jake got no time to save, Oh, oh,

(Chorus)

Dirty Dan he came up from Savannah,
Carried a mean streak in his eye.
Now, him and Jake both wanted Annabella,
I guess one man here has got to die.

Get Up, Jake, it's late in the mornin'
the rain is pourin' and we got work to do.
Get Up, Jake, there's no need a-dyin',
Annabelle's cryin' and it's all for you.
Добавлено: 28.08.2013
Другие материалы по этой песне:
  • Аккорды и текст

Страница создана 04.06.2012
http://primanota.ru/the-band/get-up-jake-chords.htm
Привет, Гость.
Предлагаем пройти революционный курс по гитаре.
Подарок от PrimaNota.Ru, забирай!