PrimaNota.ru - самый крупный в мире бесплатный архив песенных текстов, аккордов, табулатур и нот


The Background - Keep On - таба, видео

Регистрация Запомнить меня
Войти через:  Facebook Google Twitter Vk Yandex Mail.ru

The Background - Keep On - таба, видео

Печатать
Просмотров: 91
Song: Keep On
Band: The Background
www.thebackgroundmusic.com
www.myspace.com/thebackground
Label: Third String Records
Tabbed by: Dillon ( dillona@okstate.edu)

e-mail me with questions/comments... even though I know this is right because well...
i kind of used to play with them...

LEAD GUITAR:
e|------------------------------------------------------------------------|
B|------------------------------------------------------------------------|
G|--777--------666s7------777----666s4---7x--(play along with drums)------|
D|------------------------------------------------------------------------|
A|--555--------444s5------555----444s2---5x-------------------------------|
E|------------------------------------------------------------------------|


e|--------------------------------------------------------------------------|
B|--------------------------------------------------------------------------|
G|77-77-77-99--9s11s9s7--77-66-44-44-------77-77-77-1414-1414s1111s99-99-99-|
D|--------------------------------------------------------------------------|
A|55-55-55-77--7s-9s7s5--55-44-22-22-------55-55-55-1212-1212s9-s9s77-77-77-|
E|--------------------------------------------------------------------------|

---------------------|    I have to keep my eyes closed....
---------------------|
1111-1111-9s11s9s77|x2
-------------------|
9-9---9-9-7s-9s7s55|
-------------------|

e|-2s5-2---2s5-5-2p0---2s5-5-2-----------|--17-17-15-14-15-15-14------------|
B|-------2-----------2---------2-2-3-2p0-|-----------------------14-14h15---|
G|---------------------------------------|----------------------------------|
D|---------------------------------------|----------------------------------|
A|---------------------------------------|----------------------------------|
E|---------------------------------------|----------------------------------|

17-17-15-14-15-15-14-12-12|   e|2x---------------------|
--------------------------|   B|3x-x28-3-x4-2-x16-3-x8-|
--------------------------|   G|2x-----2----2-----2----|x2
--------------------------|x4 D|-----------------------|
--------------------------|   A|-----------------------|
--------------------------|   E|-----------------------|

e|-2s5-2---2s5-5-2p0---2s5-5-2-----------|--17-17-15-14-15-15-14-------------|
B|-------2-----------2---------2-2-3-2p0-|-----------------------14-14h15----|
G|---------------------------------------|-----------------------------------|
D|---------------------------------------|-----------------------------------|
A|---------------------------------------|-----------------------------------|
E|---------------------------------------|-----------------------------------|

17-17-15-14-15-15-14-12-12|
--------------------------|
--------------------------|
--------------------------|x 4
--------------------------|

SOLO
e|----------2s5-2p0-0-2s5-2p0-0------------------------2-3-5-3-2-10-9-7-7-7-|
B|3-5-7-5s3---------------------3-5-7-5s3-2-2h3p2p0----3-5-7-5-3------------|

e|10-9-7-7-----------------------------------|
B|---------3-5-7-5s3-2-2h3p2-3s15-(let ring)-|
Добавлено: 11.04.2012
Другие материалы по этой песне:
  • Аккорды и текст

Страница создана 11.04.2012
http://primanota.ru/the-background/keep-on-chords.htm
Привет, Гость.
Предлагаем пройти революционный курс по гитаре.
Подарок от PrimaNota.Ru, забирай!