PrimaNota.ru - самый крупный в мире бесплатный архив песенных текстов, аккордов, табулатур и нот


The B Foundation - Land Down Under - таба, видео

Регистрация Запомнить меня
Войти через:  Facebook Google Twitter Vk Yandex Mail.ru

The B Foundation - Land Down Under - таба, видео

Печатать
Просмотров: 262
                   Land Down Under - The B Foundation

Tabbed by: Kyle Spradling
E-mail: bananas9120@yahoo.com

This is a great song, it was pretty difficult to tab but I think I did a pretty 
good job. Hope you enjoy. Any questions, just send me an e-mail. Thanks,.


Intro 0:00-0:16
e|------------------------|
B|------------------------|
G|------------------------|
D|-----0------------------|
A|-----5b-----------------|
E|------------------------|

e|----------------------------------------------------------------------------|
B|----------------------------------------------------------------------------|
G|---11--9-------------9-------11--9----------11-11-11-11-12-12-12-11---11----|
D|---------12—-9----11---------------12--9---------------------------12----12-|
A|---------------12------------------------12---------------------------------|
E|----------------------------------------------------------------------------|


Verse 1 0:17-0:35

       Traveling   in   a    fried-out    combie
e|-----7--------7------------5----------5-----7--7-----3----5-----------------------|
B|-----7--------7------------5----------5-----7--7-----3----5-----------------------|
G|-----7--------7------------6----------6-----7--7-----4----6-----------------------|
D|-----9--------9------------7----------7-----9--9-----5----7-----------------------|
A|-----9--------9------------7----------7-----9--9-----5----7-----------------------|
E|-----7--------7------------5----------5-----7--7-----3----5-----------------------|

       On a hippie trail,    head full of zombie
e|-----7--------7-------5-------5----------2--2------------------------------------|
B|-----7--------7-------5-------5----------3--3---3-2h3p2h3------------------------|
G|-----7--------7-------6-------6----------4--4------------------------------------|
D|-----9--------9-------7-------7----------4--4------------------------------------|
A|-----9--------9-------7-------7----------2--2------------------------------------|
E|-----7--------7-------5-------5----------2--2------------------------------------|

       I met a strange lady,                        she made me  nervous
e|-----7--------7------------5----5-----7--------7------3----5-----------|
B|-----7--------7------------5----5-----7--------7------3----5-----------|
G|-----7--------7------------6----6-----7--------7------4----6-----------|
D|-----9--------9------------7----7-----9--------9------5----7-----------|
A|-----9--------9------------7----7-----9--------9------5----7-----------|
E|-----7--------7------------5----5-----7--------7------3----5-----------|

        She took me in and gave me breakfast        And she said,
e|-----7-------7-----5-------5------2--2------3-------5------------------------------|
B|-----7-------7-----5-------5------3--3------3-------5------------------------------|
G|-----7-------7-----6-------6------4--4------4-------6------------------------------|
D|-----9-------9-----7-------7------4--4------5-------7------------------------------|
A|-----9-------9-----7-------7------2--2------5-------7------------------------------|
E|-----7-------7-----5-------5------2--2------3-------5------------------------------|
  
Chorus 0:36-0:53 
      "Do you come from a land down under?
e|----5------------------5-------------7------3-x--5---------------|
B|----7------------------5-------------7------3-x--5---------------| 
G|----7------------------6-------------7------4-x--6---------------| Strumming
D|----7------------------7-------------9------5-x--7---------------|
A|----5------------------7-------------9------5-x--7---------------|
E|----5------------------5-------------7------3-x--5---------------|

    Where women glow and men plunder?
e|--5------------5--------------2--------3-x--5-------------|
B|--7------------5--------------3--------3-x--5-------------|
G|--7------------6--------------4--------4-x--6-------------| Strumming
D|--7------------7--------------4--------5-x--7-------------|
A|--5------------7--------------2--------5-x--7-------------|
E|--5------------5--------------2--------3-x--5-------------|

   Can't you hear, can't you hear the thunder?
e|--5----------------------5------------7------3-x--5-------|
B|--7----------------------5------------7------3-x--5-------|
G|--7----------------------6------------7------4-x--6-------| strumming
D|--7----------------------7------------9------5-x--7-------|
A|--5----------------------7------------9------5-x--7-------|
E|--5----------------------5------------7------3-x--5-------|

    You better run, you better take cover."
e|--5-------------5----------------2-------3-x--5------------|
B|--7-------------5----------------3-------3-x--5------------|
G|--7-------------6----------------4-------4-x--6------------| Strumming
D|--7-------------7----------------4-------5-x--7------------|
A|--5-------------7----------------2-------5-x--7------------|
E|--5-------------5----------------2-------3-x--5------------|

Solo 0:54-1:03

e|---------------------------------------------------------------|
B|------------------------------------12-12-12-------------------|
G|--11--9-------------9—9\14-14-14-14----------14-11-14-11-------|
D|--------12--9----11--------------------------------------------|
A|--------------12-----------------------------------------------|
E|---------------------------------------------------------------|

e|------------------------------------------------------------------|
B|------------------------------------------------------------------|
G|--11--9-------------9-9--11-11-11-11-12-12-12-11----11------------|
D|--------12--9----11------------------------------12----12---------|
A|--------------12--------------------------------------------------|
E|------------------------------------------------------------------|

Verse 2 1:04-1:22

     Buying bread from a man in Brussels
e|--7-----------7----------5-------5------10-9-7---------------------|
B|--7-----------7----------5-------5-------------10-8-7--------------|
G|--7-----------7----------6-------6--------------------9-7----------|
D|--9-----------9----------7-------7---------------------------------|
A|--9-----------9----------7-------7---------------------------------|
E|--7-----------7----------5-------5---------------------------------|

   He was six foot four and full of muscles
e|----7---------7-----5------5----------7--7----3--3--3--------------|
B|----7---------7-----5------5----------7--7----3--3--3--------------|
G|----7---------7-----6------6----------7--7----4--4--4--------------|
D|----9---------9-----7------7----------9--9----5--5--5--------------|
A|----9---------9-----7------7----------9--9----5--5--5--------------|
E|----7---------7-----5------5----------7--7----3--3--3--------------|



     I said,   "Do you speak-a my language?"
e|--7-------7-----------5-------5--------7--7---3--5--------------------|
B|--7-------7-----------5-------5--------7--7---3--5--------------------|
G|--7-------7-----------6-------6--------7--7---4--6--------------------|
D|--9-------9-----------7-------7--------9--9---5--7--------------------|
A|--9-------9-----------7-------7--------9--9---5--7--------------------|
E|--7-------7-----------5-------5--------7--7---3--5--------------------|

     He just smiled and gave me a vegemite sandwich         And he said,
e|--7-------7---------------5-------5------------2--2------3----5-------|
B|--7-------7---------------5-------5------------3--3------3----5-------|
G|--7-------7---------------6-------6------------4--4------4----6-------|
D|--9-------9---------------7-------7------------4--4------5----7-------|
A|--9-------9---------------7-------7------------2--2------5----7-------|
E|--7-------7---------------5-------5------------2--2------3----5-------|

Chorus 1:23-1:41

        "I come from a       land down under
e|----5------------------5-------------7------3-x--5---------------|
B|----7------------------5-------------7------3-x--5---------------| 
G|----7------------------6-------------7------4-x--6---------------| Strumming
D|----7------------------7-------------9------5-x--7---------------|
A|----5------------------7-------------9------5-x--7---------------|
E|----5------------------5-------------7------3-x--5---------------|

     Where beer does flow and men chunder
e|--5----------------5--------------2--------3-x--5-------------|
B|--7----------------5--------------3--------3-x--5-------------|
G|--7----------------6--------------4--------4-x--6-------------| Strumming
D|--7----------------7--------------4--------5-x--7-------------|
A|--5----------------7--------------2--------5-x--7-------------|
E|--5----------------5--------------2--------3-x--5-------------|

    Can't you hear, can't you hear the thunder?
e|--5----------------------5-------------7------3-x--5-------|
B|--7----------------------5-------------7------3-x--5-------|
G|--7----------------------6-------------7------4-x--6-------| strumming
D|--7----------------------7-------------9------5-x--7-------|
A|--5----------------------7-------------9------5-x--7-------|
E|--5----------------------5-------------7------3-x--5-------|

    You better run, you better take cover."
e|--5-------------5----------------2-------3-x--5------------|
B|--7-------------5----------------3-------3-x--5------------|
G|--7-------------6----------------4-------4-x--6------------| Strumming
D|--7-------------7----------------4-------5-x--7------------|
A|--5-------------7----------------2-------5-x--7------------|
E|--5-------------5----------------2-------3-x--5------------|

   I have no clue on the solo from 1:42-1:57 ?????

1:58-2:10
e|----------------------------------|
B|----------------------------------|
G|--14-14-14-14-11-14-12-11/9-------|
D|----------------------------12----|
A|----------------------------------|
E|----------------------------------|

e|---------------------------------------------------------------|
B|------------------------------------12-12-12-------------------|
G|--11--9-------------9—9\14-14-14-14----------14-11-14-11-------|
D|--------12--9----11--------------------------------------------|
A|--------------12-----------------------------------------------|
E|---------------------------------------------------------------|

e|------------------------------------------------------------------|
B|------------------------------------------------------------------|
G|--11--9-------------9-9--11-11-11-11-12-12-12-11----11------------|
D|--------12--9----11------------------------------12----12---------|
A|--------------12--------------------------------------------------|
E|------------------------------------------------------------------|

Verse 3 2:11-2:29

     Lying in a den in   Bombay
e|--7-----7------5---5----7--7-------6h7p6------------|
B|--7-----7------5---5----7--7---7h8-------8p7--------|
G|--7-----7------6---6----7--7------------------------|
D|--9-----9------7---7----9--9------------------------|
A|--9-----9------7---7----9--9------------------------|
E|--7-----7------5---5----7--7------------------------|

     With a slack jaw, and not much to say
e|--7----------7--------5--------5------7--7-----3--3---5--------|
B|--7----------7--------5--------5------7--7-----3--3---5--------|
G|--7----------7--------6--------6------7--7-----4--4---6--------|
D|--9----------9--------7--------7------9--9-----5--5---7--------|
A|--9----------9--------7--------7------9--9-----5--5---7--------|
E|--7----------7--------5--------5------7--7-----3--3---7--------|

      I said to the man, "Are you trying to tempt me
e|--7-------7---------5-------5--------7-------7-----3--5--------|
B|--7-------7---------5-------5--------7-------7-----3--5--------|
G|--7-------7---------6-------6--------7-------7-----4--6--------|
D|--9-------9---------7-------7--------9-------9-----5--7--------|
A|--9-------9---------7-------7--------9-------9-----5--7--------|
E|--7-------7---------5-------5--------7-------7-----3--5--------|

     Because I come from the land of plenty?"    And he said,
e|--7-------7-------5----------5--------2--2------3----5-------|
B|--7-------7-------5----------5--------3--3------3----5-------|
G|--7-------7-------6----------6--------4--4------4----6-------|
D|--9-------9-------7----------7--------4--4------5----7-------|
A|--9-------9-------7----------7--------2--2------5----7-------|
E|--7-------7-------5----------5--------2--2------3----5-------|

Chorus  2:30-3:07 played 2x

  "Oh! Do you come from a land down under? 
e|----5------------------5-------------7------3-x--5---------------|
B|----7------------------5-------------7------3-x--5---------------| 
G|----7------------------6-------------7------4-x--6---------------| Strumming
D|----7------------------7-------------9------5-x--7---------------|
A|----5------------------7-------------9------5-x--7---------------|
E|----5------------------5-------------7------3-x--5---------------|


    Where women glow and men plunder?
e|--5----------------5--------------2--------3-x--5-------------|
B|--7----------------5--------------3--------3-x--5-------------|
G|--7----------------6--------------4--------4-x--6-------------| Strumming
D|--7----------------7--------------4--------5-x--7-------------|
A|--5----------------7--------------2--------5-x--7-------------|
E|--5----------------5--------------2--------3-x--5-------------|

     Can't you hear, can't you hear the thunder?
e|--5----------------------5-------------7------3-x--5-------|
B|--7----------------------5-------------7------3-x--5-------|
G|--7----------------------6-------------7------4-x--6-------| strumming
D|--7----------------------7-------------9------5-x--7-------|
A|--5----------------------7-------------9------5-x--7-------|
E|--5----------------------5-------------7------3-x--5-------|

      You better run, you better take cover."
e|--5-------------5----------------2-------3-x--5------------|
B|--7-------------5----------------3-------3-x--5------------|
G|--7-------------6----------------4-------4-x--6------------| Strumming
D|--7-------------7----------------4-------5-x--7------------|
A|--5-------------7----------------2-------5-x--7------------|
E|--5-------------5----------------2-------3-x--5------------|

 3:08- Play till the end

e|---------------------------------------------------------------|
B|------------------------------------12-12-12-------------------|
G|--11--9-------------9—9\14-14-14-14----------14-11-14-11-------|
D|--------12--9----11--------------------------------------------|
A|--------------12-----------------------------------------------|
E|---------------------------------------------------------------|

e|------------------------------------------------------------------|
B|------------------------------------------------------------------|
G|--11--9-------------9-9--11-11-11-11-12-12-12-11----11------------|
D|--------12--9----11------------------------------12----12---------|
A|--------------12--------------------------------------------------|
E|------------------------------------------------------------------|
Добавлено: 19.04.2012
Другие материалы по этой песне:
  • Аккорды и текст

Страница создана 19.04.2012
http://primanota.ru/the-b-foundation/land-down-under-chords.htm
Привет, Гость.
Предлагаем пройти революционный курс по гитаре.
Подарок от PrimaNota.Ru, забирай!