PrimaNota.ru - самый крупный в мире бесплатный архив песенных текстов, аккордов, табулатур и нот


The Avett Brothers - Me And God - таба, видео

Регистрация Запомнить меня
Войти через:  Facebook Google Twitter Vk Yandex Mail.ru

The Avett Brothers - Me And God - таба, видео

Печатать
Просмотров: 131
   e----------------------------------------------------------|
   b---3--1--0----------------1-0-----------------------------|
   g------------2--0-----0-2-------2-0---------0--------------|
   d-------------------2-----------------2-0-2----------------|
   a----------------------------------------------------------|
   E----------------------------------------------------------|

   e---------------------------------------------------------------------|
   b---------------------------------------------------------------------|
   g-------2-0-----------------------------2-0---------------------------|
   d------------2-0-----------------------------2-0----------------------|
   a----------------3-2-3-0-----------------------3-2-3-0----------------|
   E------------------------3-(G)---------------------------3(G)---------|
Well (G)I know a preacher hes a (F)real good (G)man
Speaks from the good book (F)in his (C)hand
   e--------------------------------------------|
   B--------------------------------------------|
   G---2-0--------------------------------------|
   D--------2-0---------------------------------|
   A--------------3-2-3-0-----------------------|
   E------------------------3(G)----------------|
And (G)helps all people (F)when he (G)can
But me and God don't (F)need a middle (C)man

Now I found God in a soft woman's hair
A long days work and a good sittin chair
The ups and downs on the treble clef lines
And five miles to go on an interstate sign

(C)My (G)God (C)my (G)God (C)and (G)I
Don't (F)need a middle (C)man

Now I found God in a soft woman's hair
A long days work and a good sittin chair
The ups and downs on the treble clef lines
And five miles to go on an interstate sign

Now I don't doubt that the Good Book is true
But what's right for me may not be right for you
So church on Sunday I stand beside
For all the hurtin people with the fear in their eyes

And I thank the Lord for the country land
And just like Paul I thank Him for my hands
But I don't know if my soul is saved
Cause sometimes I use curse words when I pray
Добавлено: 12.10.2013
Другие материалы по этой песне:
  • Аккорды и текст

Страница создана 12.10.2013
http://primanota.ru/the-avett-brothers/me-and-god-chords.htm
Привет, Гость.
Предлагаем пройти революционный курс по гитаре.
Подарок от PrimaNota.Ru, забирай!