PrimaNota.ru - самый крупный в мире бесплатный архив песенных текстов, аккордов, табулатур и нот


The Autumn Offering - Shadows Of Betrayal - текст песни, таба, видео

Регистрация Запомнить меня
Войти через:  Facebook Google Twitter Vk Yandex Mail.ru

The Autumn Offering - Shadows Of Betrayal - текст песни, таба, видео

Печатать
Просмотров: 91
I learned this with the help of my guitar teacher so credits to him.
This is a really Easy intro but after that its pretty hard so good luck
if you plan to try to figure out the rest.

Guitar I
e|------------------------------------------------|
A|------------------------------------------------|
G|-----0-------0-------0-------0-------0-------0--|
C|---0---0---0---0---0---0---0---0---0---0---0---0|
G|-0-------0-------1-------1-------3-------3------|
C|------------------------------------------------|
                                                     x2
e|------------------------------------------------|
A|------------------------------------------------|
G|----0-------0-------0---------------------------|
C|--0---0---0---0---0---0-------------------------|
G|1-------1-------0-------0-----------------------|
C|------------------------------------------------|

00:23
Guitar II
e|------------------------------------------------|
A|-----------------------------------3------------|
G|0-0--0-0--0-0--0-0--0-0--0-0---8--4-4-----------|
C|-8-12-8----8-12-8----8-12-8---8-8---------------| x4
G|------------------------------------------------|
C|------------------------------------------------|
Guitar I
e|------------------------------------------------|
A|------------------------------------------------|
G|--0---0---0---0---0---0---0---0-----------------|
C|-0-0-0-0-0-0-0-0-0-0-0-0-0-0-0-0----------------| x4
G|--------1---1---3---3---1---0-------------------|
C|0---0---------------------------0---------------|

Добавлено: 08.04.2012
Другие материалы по этой песне:
  • Аккорды и текст

Страница создана 08.04.2012
http://primanota.ru/the-autumn-offering/shadows-of-betrayal-chords.htm
Привет, Гость.
Предлагаем пройти революционный курс по гитаре.
Подарок от PrimaNota.Ru, забирай!