PrimaNota.ru - самый крупный в мире бесплатный архив песенных текстов, аккордов, табулатур и нот


The Autumn Offering - Last Desperado - текст песни, таба, видео

Регистрация Запомнить меня
Войти через:  Facebook Google Twitter Vk Yandex Mail.ru

The Autumn Offering - Last Desperado - текст песни, таба, видео

Печатать
Просмотров: 78
THE AUTUMN OFFERING
LAST DESPERADO
C#-G#-C#-F#-A#-D#
*=PALM MUTE
)( BEND/UNBEND

TABBED BY andherembrace

TAB INCLUDES WHOLE SONG W/ BOTH GTR PARTS


L
--------------------------------------------------------------|
--------------------------------------------------------------|
----5-7-----7-5----7--7-7---------------------------------P---|
----X-X-----X-X----X--X-X---7-----------------------------H)--|
-0--3/5--**-5\3--*-5--5-5-*-5-6-5-3--3-3-0-3-5--6--6-6--*-3---|
-0-------00------0--------0---6-5-3--3-3-0-3/5--6--6-6--0-----|
R
---------------------------------------------------------------|
---------------------------------------------------------------|
----------------------------------------------------------P----|
---5-7------7-5----7--7-7---7-----------------------------H)---|
-0-3/5---**-5\3--*-5--5-5-*-5-6-5-3--3-3-0-3-5--6--6-6--*-3----|
-0-------00------0--------0---6-5-3--3-3-0-3/5--6--6-6--0------|


0:05
L

-------------------------------------------------------------------|
-------------------------------------------------------------------|
---910----10-9----10-1010--10-12-14----------------10--9--6--6-6---|
---X-X-----X-X-----X--X-X---X--X--X-----------------X--X--X--X-X---|
-0-7/8--**-8\7---*-8--8-8-*-8/10/12--8----8-**--5-5-8--7--4--4-4---|
-0------00-------0--------0----------8----8-88--5-5----------------|
R
-------------------------------------------------------------------|
-------------------------------------------------------------------|
-------------------------------------------------------------------|
---5-7------7-5----7--7-7---7-9-10------------------------6--6-6---|
-0-3/5---**-5\3--*-5--5-5-*-5/7/8----8----8-**---5-5-7--7-4--4-4---|
-0-------00------0--------0----------8----8-88---5-5-7--7----------|


0;10
L
-------------------------------------------------------------------|
-------------------------------------------------------------------|
----5-7-----7-5----7--7-7------------5--5-5-5---5-7----8-8-8---P---|
----X-X-----X-X----X--X-X---7--------X--X-X-X---X-X----X-X-X---H)--|
-0--3/5--**-5\3--*-5--5-5-*-5-6-5-3--3--3-3-3-*-3/5--*-6-6-6-*-3---|
-0-------00------0--------0---6-5-3-----------0------0-------0-----|
R
---------------------------------------------------------------|
---------------------------------------------------------------|
----------------------------------------------------------P----|
---5-7------7-5----7--7-7---7-----------------------------H)---|
-0-3/5---**-5\3--*-5--5-5-*-5-6-5-3--3-3-0-3-5--6--6-6--*-3----|
-0-------00------0--------0---6-5-3--3-3-0-3/5--6--6-6--0------|


0:15
L
-------------------------------------------------------------------|
-------------------------------------------------------------------|
---99-10----10-9----10-1010--10-12-14---------------10--9--6-14----|
---XX-X-----X-X-----X--X-X---X--X--X-----------------X--X--X--X----|
-0-77/8--**-8\7---*-8--8-8---8/10/12--8----8-**--5-5-8--7--4/12----|
-0-------00-------0--------0----------8----8-88--5-5---------------|
R
-------------------------------------------------------------------|
-------------------------------------------------------------------|
-------------------------------------------------------------------|
---5-7------7-5----7--7-7---7-9-10------------------------6--6-----|
-0-3/5---*--5\3--*-5--5-5---5/7/8-----8----8-**--5-5-7--7-4--4-----|
-0-------0-------0--------0-----------8----8-88--5-5-7--7----------|


0:19
L
---------------------------------------------------------------|
-----------_-------------------------------_--------------)(---|
----------/ \-----------------------------/ \------------9-----|
-----7---5-7-5-------5---------------7---5-7-5---7---8---------|
---*---*-------*-8-*---*-7-*-8-*---*---*-------*---*---*-------|
-0-0---0-------0---0---0---0---0-0-0---0-------0---0---0-------|
R
---------------------------------------------------------------|
-----------_-------------------------------_-------------------|
----------/ \-----------------------------/ \-------------)(---|
-----7---5-7-5-------5---------------7---5-7-5-------5---7-----|
---*---*-------*-8-*---*-7-*-8-*---*---*-------*-8-*---*-------|
-0-0---0-------0---0---0---0---0-0-0---0-------0---0---0-------|


0:24
L
----------------------------------------------------------------|
-----------_----------------------------------------------------|
----------/ \----------------------****----------____-----------|
-----7---5-7-5-------5-----------5-5555-8-7-----/    \----)-(---|
---*---*-------*-8-*---*-7-*-8-*------------10-8--10--8--7------|
-0-0---0-------0---0---0---0---0--------------------------------|
R
---------------------------------------------------------------|
-----------_---------------------------------------------------|
----------/ \------------------------------------___-----------|
-----7---5-7-5-------5-------------****---------/   \----)-(---|
---*---*-------*-8-*---*-7-*-8-*-7-7777-10-8-7-5--7--5--4------|
-0-0---0-------0---0---0---0---0-------------------------------|


0:29
L
---------------------------------------------------------------|
-----------_-------------------------------_--------------)(---|
----------/ \-----------------------------/ \------------6-----|
-----7---5-7-5-------5---------------7---5-7-5---7---8---------|
---*---*-------*-8-*---*-7-*-8-*---*---*-------*---*---*-------|
-0-0---0-------0---0---0---0---0-0-0---0-------0---0---0-------|
R
---------------------------------------------------------------|
-----------_-------------------------------_-------------------|
----------/ \-----------------------------/ \-------------)(---|
-----7---5-7-5-------5---------------7---5-7-5-------5---7-----|
---*---*-------*-8-*---*-7-*-8-*---*---*-------*-8-*---*-------|
-0-0---0-------0---0---0---0---0-0-0---0-------0---0---0-------|


0:34
L
----------------------------------------------------------------|
-----------_----------------------------------------------------|
----------/ \----------------------****----------____-----------|
-----7---5-7-5-------5-----------5-5555-8-7-----/    \----)-(---|
---*---*-------*-8-*---*-7-*-8-*------------10-8--10--8--7------|
-0-0---0-------0---0---0---0---0--------------------------------|
R
---------------------------------------------------------------|
-----------_---------------------------------------------------|
----------/ \------------------------------------___-----------|
-----7---5-7-5-------5-------------****---------/   \----)-(---|
---*---*-------*-8-*---*-7-*-8-*-7-7777-10-8-7-5--7--5--4------|
-0-0---0-------0---0---0---0---0-------------------------------|


0:38
L
-------------------------------------------------------------------------------------|
-------------------------------------------------------------------------------------|
---------------------------------------------------1010-7----------------------------|
-------^-----------^---------------^-----------^----X-X-X-------^-----------^--------|
-****-3-0----****-3-0-3-5-6--****-3-0----****-3-0-*-8-8-5-****-3-0----****-3-0-3-5-6-|
-0000-3-0----0000-3-0-3-5-6--0000-3-0----0000-3-0-0-------0000-3-0----0000-3-0-3-5-6-|
R
-------------------------------------------------------------------------------------|
-------------------------------------------------------------------------------------|
-------------------------------------------------------------------------------------|
-------^-----------^---------------^-----------^---1010-7----- -^-----------^--------|
-****-3-0----****-3-0-3-5-6--****-3-0----****-3-0-*-8-8-5-****-3-0----****-3-0-3-5-6-|
-0000-3-0----0000-3-0-3-5-6--0000-3-0----0000-3-0-0-------0000-3-0----0000-3-0-3-5-6-|


0:46

L                                                   W/IPS OCTAVE+1
----------------------------------------------------|------------------------|
-------------------------_--------------------------|---___------------------|
------------------------/ \-------------------------|--/   \---____----------|
-----3-----3---------3-5-6-5-3-------3-----3--------|-3-5-3-0-/    \--^--5---|
---5-----5---5-----3-----------3---5-----5---5-----|---------3-5-3-0-3-5-----|
-6-----5-------5-3---------------5-----6-------6-0-|-------------------------|

R LET ALL NOTES RING
-----------------------------------------------------------------------------|
----------------------------------------------------------_------------------|
--------------------)--(---------------------------------/ \-----------------|
-----------------16------------14----------------------14----14--------------|
-----------------17------------15----------------------15-17-15-------12-----|
-----------------------------------------------------------------------------|

0:52
L
----------------------------------------------------|
-------------------------_--------------------------|
------------------------/ \-------------------------|
-----3-----3---------3-5-6-5-3-------3-----3--------|
---5-----5---5-----3-----------3---5-----5---5------|
-6-----5-------5-3---------------5-----6-------6-0--|
R
----------------------------------------------------------------------------|
-[10])----------------------------------------------------------------------|
-[12]----------------------------------------7------------------------------|
------------------------------------)(---------7---------USE WAH TO TURN----|
----------------------8----10--10-10----10-------10--8~~~--INTO FEEDBACK----|
----------------------------------------------------------------------------|

  0:56                                                 W/HEAVY CHORUS+SLIGHT BEND


BOTH----------------------------------------------------------------------|
---------------------------------------------------------------10---------|
---------------------------------------------------------------13---------|
---------------------------------------------------------------0----------|
--*****-----***-----*****--***-***-----*****--***----***-*-*--------------|
--00000-----000-----00000--000-000-----00000--000----000-0-0--------------|

1:03
--------------------------------------------------------------------------|
--------------------------------------------------------------------------|
--------------------------------------------------------------------------|
--------------------------------------------------------------------------|
--*****-----***-----*****--***-***-----*****--***----*****-L--R***-***----|
--00000-----000-----00000--000-000-----00000--000----00000-PS\-000-000----|


1;09
L
--------------------------------------------------------------------------|
--------------------------------------------------------------------------|
------7------8-7---10-8----7-8----5-7-----7------8-7---10-8----7---_------|
------X------X-X----X-X----X-X----X-X-----X------X-X----X-X----X--/ \-----|
-***--5--**--6\5-**-8\6-**-5/6-**-3/5-***-5---**-6\5-**-8\6-**-5-5-8-5-3--|
-000-----00------00-----00-----00-----000-----00-----00-----00------------|
R
-------------------------------------------------------------------------|
------------------------------------------------------------------__-----|
--------------------------------___------------------------------/  \----|
-------------------------------/   \----------------------------7-10-7-5-|
-****0------**0----*****0-----1-0-1-0--****0------**0----*****0----------|
-00000------000----000000-----1-0-1-0--00000------000----000000----------|


1:14
L
------------------------------------------------------------------------------------|
------------------------------------------------------------------------------------|
------7------8-7---10-8----7-8----5-7-----12-14----15-14----17-15----14-15----12-14-|
------X------X-X----X-X----X-X----X-X-----X--X------X--X-----X--X-----X--X-----X--X-|
-***--5--**--6\5-**-8\6-**-5/6-**-3/5-***-10/12-**-13\12-**-15\13-**-12/13-**-10/12-|
-000-----00------00-----00-----00-----000-------00-------00-------00-------00-------|
R
---------------------------------------------------------------------------------|
---------------------------------------------------------------------------------|
--------------------------------___--------5-7------8-7---10-8----7-8----5-7-----|
-------------------------------/   \-------X-X------X-X----X-X----X-X----X-X-----|
-****0------**0----*****0-----1-0-1-0--***-3/5--**--6\5-**-8\6-**-5/6-**-3/5-----|
-00000------000----000000-----1-0-1-0--000------00------00-----00-----00---------|


1:20
L
------------------------------------------------------------------------|
--------------------------------------------------------------__--------|
-----^------^--------------^-----------^------^--------------/  \-------|
----5-7----8-7-------10---8-10---7----5-7----8-7-------10---8-10-8---5--|
-**-----*------*-***----*------*---**-----*------*-***----*--------*----|
-00-----0------0-000----0------0---00-----0------0-000----0--------0----|
R
------------------------------------------------------------------------|
------------------------------------------------------------------------|
--------------------------------------------------------------_---------|
-----^------^--------------^-----------^------^--------------/ \--------|
-**-3-5-*--6-5-*-***-8--*-6-8--*-5-**-3-5-*--6-5-*-***-8--*-6-8-6-*-3---|
-00-----0------0-000----0------0---00-----0------0-000----0-------0-----|


1:25
L
------------------------------------------------------------------------|
--------------------------------------------------------------__--------|
-----^------^--------------^-----------^------^--------------/  \-------|
----5-7----8-7-------10---8-10---7----5-7----8-7-------10---8-10-8---5--|
-**-----*------*-***----*------*---**-----*------*-***----*--------*----|
-00-----0------0-000----0------0---00-----0------0-000----0--------0----|
R
------------------------------------------------------------------------|
------------------------------------------------------------------------|
--------------------------------------------------------------_---------|
-----^------^--------------^-----------^------^--------------/ \--------|
-**-3-5-*--6-5-*-***-8--*-6-8--*-5-**-3-5-*--6-5-*-***-8--*-6-8-6-*-3---|
-00-----0------0-000----0------0---00-----0------0-000----0-------0-----|


1:30
L
-----------------------------------------------------------------------------------------|
-----------------------------------------------------------------------------------------|
--14-----------12----10--9---------------------------------------------------------------|
---X---PS-------X----X---X---7----6----5----3-----7----6----5----3-----7----6----5----3--|
--12------\----10----8---7---5----4----3----1-----5----4----3----1-----5----4----3----1--|
-----------------------------------------------------------------------------------------|
R
-----------------------------------------------------------------------------------------------|
-----------------------------------------------------------------------------------------------|
--7-----6-------5----3------7----9----10----12----7----6----5--3-1012--7--9-10910-1210-12-14---|
--X-----X-------X----X------X----X-----X-----X----X----X----X--X-X--X--X--X-X-X-X--X-X--X--X---|
--5-----4-------3----1------5----7-----8----10----5----4----3--1-8-10--5--7-8-7-8-10-8-10-12---|
-----------------------------------------------------------------------------------------------|


1:51
-----------------------|
-----------------------|
-----------------------|
-----3-----3-----------|
---5-----5---5-----0---|
-6-----5-------5---0---|


1:57
L
----------------------------------------------------------------|
----------------------------------------------------------------|
------5---------------------------------------------------------|
------X---------------------------------------------------------|
-P----3----5----7----8---7---5---V------------------------------|
--S-------------------------------------------------------------|
R
---------------------------------------------------------------|
---------------------------------------------------------------|
---------------------------------------------------------------|
-----------5---------------------------------------------------|
------1--------------------------------------------------------|
-----------------------7--15\--0----V--------------------------|


2:01
L
--------------------------------------------------------------|
--------------------------------------------------------------|
----5-7-----7-5----7--7-7---------------------------------P---|
----X-X-----X-X----X--X-X---7-----------------------------H)--|
-0--3/5--**-5\3--*-5--5-5-*-5-6-5-3--3-3-0-3-5--6--6-6--*-3---|
-0-------00------0--------0---6-5-3--3-3-0-3/5--6--6-6--0-----|
R
---------------------------------------------------------------|
---------------------------------------------------------------|
----------------------------------------------------------P----|
---5-7------7-5----7--7-7---7-----------------------------H)---|
-0-3/5---**-5\3--*-5--5-5-*-5-6-5-3--3-3-0-3-5--6--6-6--*-3----|
-0-------00------0--------0---6-5-3--3-3-0-3/5--6--6-6--0------|


2:06
L
-------------------------------------------------------------------|
-------------------------------------------------------------------|
---99-10----10-9----10-1010--10-12-14---------------10--9--6-14----|
---XX-X-----X-X-----X--X-X---X--X--X-----------------X--X--X--X----|
-0-77/8--**-8\7---*-8--8-8-*-8/10/12--8----8-**--5-5-8--7--4/12----|
-0-------00-------0--------0----------8----8-88--5-5---------------|
R
-------------------------------------------------------------------|
-------------------------------------------------------------------|
-------------------------------------------------------------------|
---5-7------7-5----7--7-7---7-9-10------------------------6--6-----|
-0-3/5---*--5\3--*-5--5-5-*-5/7/8-----8----8-**--5-5-7--7-4--4-----|
-0-------0-------0--------0-----------8----8-88--5-5-7--7----------|

2:11
L
--------------------------------------------------------------|
--------------------------------------------------------------|
----5-7-----7-5----7--7-7--------------7--9--7--9-10--12--14--|
----X-X-----X-X----X--X-X---7----------X--X--X--X--X---X---X--|
-0--3/5--**-5\3--*-5--5-5-*-5-6-5-3-3--5--7--5--7--8--10--12--|
-0-------00------0--------0---6-5-3---------------------------|
R
---------------------------------------------------------------|
---------------------------------------------------------------|
---------------------------------------------------------------|
---5-7------7-5----7--7-7---7----------------------------------|
-0-3/5---**-5\3--*-5--5-5-*-5-6-5-3--3-3-3-3-3-3-3-5-5-5-5-5-5-|
-0-------00------0--------0---6-5-3--3-3-3-3-3-3-3-5-5-5-5-5-5-|

2:16
L
-------------------------------------------------------------------|
-------------------------------------------------------------------|
---99-10----10-9----10-1010--10-12-14---------------10--9--14-6----|
---XX-X-----X-X-----X--X-X---X--X--X-----------------X--X--X--X----|
-0-77/8--**-8\7---*-8--8-8-*-8/10/12--8----8-**--5-5-8--7--12/4----|
-0-------00-------0--------0----------8----8-88--5-5---------------|
R
-------------------------------------------------------------------|
-------------------------------------------------------------------|
-------------------------------------------------------------------|
---5-7------7-5----7--7-7---7-9-10------------------------6--6-----|
-0-3/5---*--5\3--*-5--5-5-*-5/7/8-----8----8-**--5-5-7--7-4--4-----|
-0-------0-------0--------0-----------8----8-88--5-5-7--7----------|


2:21
L
---------------------------------------------------------------|
-----------_-------------------------------_--------------)(---|
----------/ \-----------------------------/ \------------6-----|
-----7---5-7-5-------5---------------7---5-7-5---7---8---------|
---*---*-------*-8-*---*-7-*-8-*---*---*-------*---*---*-------|
-0-0---0-------0---0---0---0---0-0-0---0-------0---0---0-------|
R
---------------------------------------------------------------|
-----------_-------------------------------_-------------------|
----------/ \-----------------------------/ \-------------)(---|
-----7---5-7-5-------5---------------7---5-7-5-------5---7-----|
---*---*-------*-8-*---*-7-*-8-*---*---*-------*-8-*---*-------|
-0-0---0-------0---0---0---0---0-0-0---0-------0---0---0-------|


2:25
L
----------------------------------------------------------------|
-----------_----------------------------------------------------|
----------/ \----------------------****----------____-----------|
-----7---5-7-5-------5-----------5-5555-8-7-----/    \----)-(---|
---*---*-------*-8-*---*-7-*-8-*------------10-8--10--8--7------|
-0-0---0-------0---0---0---0---0--------------------------------|
R
---------------------------------------------------------------|
-----------_---------------------------------------------------|
----------/ \------------------------------------___-----------|
-----7---5-7-5-------5-------------****---------/   \----)-(---|
---*---*-------*-8-*---*-7-*-8-*-7-7777-10-8-7-5--7--5--4------|
-0-0---0-------0---0---0---0---0-------------------------------|


2:30
L
---------------------------------------------------------------|
-----------_-------------------------------_--------------)(---|
----------/ \-----------------------------/ \------------9-----|
-----7---5-7-5-------5---------------7---5-7-5---7---8---------|
---*---*-------*-8-*---*-7-*-8-*---*---*-------*---*---*-------|
-0-0---0-------0---0---0---0---0-0-0---0-------0---0---0-------|
R
---------------------------------------------------------------|
-----------_-------------------------------_-------------------|
----------/ \-----------------------------/ \-------------)(---|
-----7---5-7-5-------5---------------7---5-7-5-------5---7-----|
---*---*-------*-8-*---*-7-*-8-*---*---*-------*-8-*---*-------|
-0-0---0-------0---0---0---0---0-0-0---0-------0---0---0-------|

2:34
L
-----------------------------------------------------------------|
-----------_----------------------------------------------S------|
----------/ \----------------------****----------____-----P------|
-----7---5-7-5-------5-----------5-5555-8-7-----/    \----H)-----|
---*---*-------*-8-*---*-7-*-8-*------------10-8--10--8---7------|
-0-0---0-------0---0---0---0---0---------------------------------|
R
---------------------------------------------------------------|
-----------_---------------------------------------------------|
----------/ \------------------------------------___-----------|
-----7---5-7-5-------5-------------****---------/   \----)-(---|
---*---*-------*-8-*---*-7-*-8-*-7-7777-10-8-7-5--7--5--4------|
-0-0---0-------0---0---0---0---0-------------------------------|


2:38
L
---------------------------------------------------------------|
---------------------------------------------------------------|
---------------------------------------------------------------|
----------------------------7---------------------------7------|
--8--**--10-8-7---7-10----7---8--**--10-8-7---7-10----7--------|
--8--88---------7------11-----8--88---------7------11----------|
R

---------------------------------------------------------------|
---------------------------------------------------------------|
-----------------___--------------------------___--------------|
---****---------/   \-----------****---------/   \-------------|
-7-7777-10-8-7-5--7--5--4-----7-7777-10-8-7-5--7--5--4---------|
---------------------------------------------------------------|

2:44
L
-----------------------------------------------|
----------------10-10-10-10-10-10-10-10-10-----|
----------------13-13-13-14-14-14-14-14-14-----|
-----------------0--0--0--0-0-0-0-0-0-0-0------|
-0----*-*-***-*------------------------------P-|
-0----0-0-000-0-------------------------------S|
R
---------------------------------------------------------------|
---------------------------------------------------------------|
---------------------------------------------------------------|
---------------------------------------------------------------|
-0---------------H---------------------------------------------|
-0---------------V---------------------------------------------|


2:49
L
-------------------------------------------------------------------------------|
-------------------------------------------------------------------------------|
------------_-----_-----------------------------_-----_------------------------|
-----------/ \---/ \------------3-4-3----------/ \---/ \-----------------------|
--***-***-5-8-5-4-7-4-***-6-5-6-------***-***-5-8-5-4-7-4-*-*-***-*-*-***------|
--000-000-------------000-------------000-000-------------0-0-000-0-0-000------|
R
-----------------------------------------------------------------------------|
------------__-----_-----------------------------__-----_--------------------|
-----------/  \---/ \------------5-6-5----------/  \---/ \-------------------|
----------7-10-7-6-9-6-----8-7-8---------------7-10-7-6-9-6------------------|
--***-***--------------***-------------***-***--------------*-*-***-*-*-***--|
--000-000--------------000-------------000-000--------------0-0-000-0-0-000--|

2:54
L
-------------------------------------------------------------------------------|
-------------------------------------------------------------------------------|
------------_-----_-----------------------------_-----_------------------------|
-----------/ \---/ \------------3-4-3----------/ \---/ \-----------------------|
--***-***-5-8-5-4-7-4-***-6-5-6-------***-***-5-8-5-4-7-4-*-*-***-*-*-***------|
--000-000-------------000-------------000-000-------------0-0-000-0-0-000------|
R
-----------------------------------------------------------------------------|
------------__-----_-----------------------------__-----_--------------------|
-----------/  \---/ \------------5-6-5----------/  \---/ \-------------------|
----------7-10-7-6-9-6-----8-7-8---------------7-10-7-6-9-6------------------|
--***-***--------------***-------------***-***--------------*-*-***-*-*-***--|
--000-000--------------000-------------000-000--------------0-0-000-0-0-000--|



2:59L
-------------------------------------------------------------------------------|
-------------------------------------------------------------------------------|
------------_-----_-----------------------------_-----_------------------------|
-----------/ \---/ \------------3-4-3----------/ \---/ \-----------------------|
--***-***-5-8-5-4-7-4-***-6-5-6-------***-***-5-8-5-4-7-4-*-*-***-*-*-***------|
--000-000-------------000-------------000-000-------------0-0-000-0-0-000------|
R
-----------------------------------------------------------------------------|
------------__-----_-----------------------------__-----_--------------------|
-----------/  \---/ \------------5-6-5----------/  \---/ \-------------------|
----------7-10-7-6-9-6-----8-7-8---------------7-10-7-6-9-6------------------|
--***-***--------------***-------------***-***--------------*-*-***-*-*-***--|
--000-000--------------000-------------000-000--------------0-0-000-0-0-000--|

3:04
L
-------------------------------------------------------------------------------|
-------------------------------------------------------------------------------|
------------_-----_-----------------------------_-----_------------------------|
-----------/ \---/ \------------3-4-3----------/ \---/ \-----------------------|
--***-***-5-8-5-4-7-4-***-6-5-6-------***-***-5-8-5-4-7-4-*-*-***-*-*-***------|
--000-000-------------000-------------000-000-------------0-0-000-0-0-000------|
R
-----------------------------------------------------------------------------|
------------__-----_-----------------------------__-----_--------------------|
-----------/  \---/ \------------5-6-5----------/  \---/ \-------------------|
----------7-10-7-6-9-6-----8-7-8---------------7-10-7-6-9-6------------------|
--***-***--------------***-------------***-***--------------*-*-***-*-*-***--|
--000-000--------------000-------------000-000--------------0-0-000-0-0-000--|

Добавлено: 11.11.2013
Другие материалы по этой песне:
  • Аккорды и текст

Страница создана 30.07.2012
http://primanota.ru/the-autumn-offering/last-desperado-chords.htm
Привет, Гость.
Предлагаем пройти революционный курс по гитаре.
Подарок от PrimaNota.Ru, забирай!