PrimaNota.ru - самый крупный в мире бесплатный архив песенных текстов, аккордов, табулатур и нот


The Autumn Offering - Homecoming - текст песни, таба, видео

Регистрация Запомнить меня
Войти через:  Facebook Google Twitter Vk Yandex Mail.ru

The Autumn Offering - Homecoming - текст песни, таба, видео

Печатать
Просмотров: 76
THE AUTUMN OFFERING
HOMECOMING
C#-G#-C#-F#-A#-D#
*=PALM MUTE
^=HAMMER ON
)=BEND

TABBED BY andherembrace


0:20
------------------------------------------------|
------------------------------------------------|
--15-------14----------10---------9-------------|
---x--------x----------x----------x-------------|
-/13-------12----------8----------7--------\----|
-------------------------------------------\----|

0:25
L
----------------------------------------------------------------|
----------------------------------------------------------------|
----------------------7---7---7-----------------_---------------|
----------------------6---6---6\---------------/ \----_---------|
-0-*-*-***-***-***-*----*---*-----*-*-***-***-3-5-3--/ \---)----|
-0-0-0-000-000-000-0----0---0-----0-0-000-000-------6-5-3-5-----|


0:29
L
---------------------------------------------------------------|
---------------------------------------------------------------|
---------------------13---13--13-------------BOTH--------------|
---------------------12---12--12\------------------------------|
-0-*-*-***-***-***-*----*---*-----*-*-***-*--6--6-6----1--1-1--|
-0-0-0-000-000-000-0----0---0-----0-0-000-0--6--6-6----1--1-1--|


0:34
B
---------------------------------------------------------------|
---------------------------------------------------------------|
---------------------------------------------------------------|
--------^---------------------------^--------------------------|
-0-*-*-3-5-*-*-***-***--^--*-0-*-*-3-5-*-6--6-6--1--1-1--------|
-0-0-0-----0-0-000-000-5-3-0-0-0-0-----0-6--6-6--1--1-1--------|


0:38
L
---------------------------------------------------------------|
---------------------------------------------------------------|
-----------------------------------------8--8-8--3--3-3--------|
--------^---------------------------^----X--X-X--X--X-X--------|
-0-*-*-7-8-*-*-***-***--^--*-0-*-*-7-8-*-6--6-6--1--1-1--------|
-0-0-0-----0-0-000-000-5-3-0-0-0-0-----0-----------------------|
R
---------------------------------------------------------------|
---------------------------------------------------------------|
---------------------------------------------------------------|
--------^---------------------------^--------------------------|
-0-*-*-3-5-*-*-***-***--^--*-0-*-*-3-5-*-6--6-6--1--1-1--------|
-0-0-0-----0-0-000-000-5-3-0-0-0-0-----0-6--6-6--1--1-1--------|


0:42
L
---------------------------------------------------------------|
---------------------------------------------------------------|
-7-------------------------------------------------------------|
-X------^---------------------------^--------------------------|
-5\*-*-3-5-*-*-***-***--^--*-0-*-*-3-5-*-6--6-6--1--1-1--------|
---0-0-----0-0-000-000-5-3-0-0-0-0-----0-6--6-6--1--1-1--------|
R
---------------------------------------------------------------|
---------------------------------------------------------------|
---------------------------------------------------------------|
--------^---------------------------^--------------------------|
-0-*-*-3-5-*-*-***-***--^--*-0-*-*-3-5-*-6--6-6--1--1-1--------|
-0-0-0-----0-0-000-000-5-3-0-0-0-0-----0-6--6-6--1--1-1--------|


0:48
L
---------------------------------------------------------------|
---------------------------------------------------------------|
-----------------------------------------8--8-8--3--3-3--------|
--------^---------------------------^----X--X-X--X--X-X--------|
-0-*-*-7-8-*-*-***-***--^--*-0-*-*-7-8-*-6--6-6--1--1-1--------|
-0-0-0-----0-0-000-000-5-3-0-0-0-0-----0-----------------------|
R
---------------------------------------------------------------|
---------------------------------------------------------------|
---------------------------------------------------------------|
--------^---------------------------^--------------------------|
-0-*-*-3-5-*-*-***-***--^--*-0-*-*-3-5-*-6--6-6--1--1-1--------|
-0-0-0-----0-0-000-000-5-3-0-0-0-0-----0-6--6-6--1--1-1--------|


0:52
L
---------------------------------------------------------------|
---------------------------------------------------------------|
-7-------------------------------------------------------------|
-X------^---------------------------^--------------------------|
-5\*-*-3-5-*-*-***-***--^--*-0-*-*-3-5-*-6--6-6--1--1-1--------|
---0-0-----0-0-000-000-5-3-0-0-0-0-----0-6--6-6--1--1-1--------|
R
---------------------------------------------------------------|
---------------------------------------------------------------|
---------------------------------------------------------------|
--------^---------------------------^--------------------------|
-0-*-*-3-5-*-*-***-***--^--*-0-*-*-3-5-*-6--6-6--1--1-1--------|
-0-0-0-----0-0-000-000-5-3-0-0-0-0-----0-6--6-6--1--1-1--------|


0:56
L
--------------------------------------------------------|
--------------------------------------------------------|
--------------------------------------------------------|
--------^---------------------------^-------------------|
-0-*-*-7-8-*-*-***-***--^--*-0-*-*-7-8-*--6-5-3-5-3-1---|
-0-0-0-----0-0-000-000-5-3-0-0-0-0-----0--6-5-3-5-3-1---|

--------------------------------------------------------|
--------------------------------------------------------|
--------------------------------------------------------|
--------^---------------------------^-------------------|
-0-*-*-3-5-*-*-***-***--^--*-0-*-*-3-5-*--0-------------|
-0-0-0-----0-0-000-000-5-3-0-0-0-0-----0--0|------------|

1:01
b
-----------------------------------------------------------------------------------|
-----------------------------------------------------------------------------------|
-----------------------------------------------------------------------------------|
-----------------------------------------------------------------------------------|
-0--*-*-----*-*-*--0--*-*-*-6-5-3-5-3-1--0--*-*-----*-*-*--0--*-*-*-6-5-3-5-3-1----|
-0--0-0-----0-1-3--0--0-0-0-6-5-3-5-3-1--0--0-0-----0-1-3--0--0-0-0-6-5-3-5-3-1----|


1:09
L
------------------------------------------------------------------------------------------------|
------------------------------------------------------------------------------------------------|
-----------P------------------------------------------------------------------------------------|
-----------H)-----------------------------------------------------------------------------------|
-0--*-*-**-3--*-*-*--0--*-*-*-6-5-3-5-3-1--0--*-*-----*-*-*--0--*-*-*-6-5-3-5-3-1-6-5-3-5-3-1---|
-0--0-0-00----0-1-3--0--0-0-0-6-5-3-5-3-1--0--0-0-----0-1-3--0--0-0-0-6-5-3-5-3-1-6-5-3-5-3-1---|
R
-----------------------------------------------------------------------------------|
-----------------------------------------------------------------------------------|
-----------------------------------------------------------------------------------|
-----------------------------------------------------------------------------------|
-\--*-*-------*-*-*--0--*-*-*-6-5-3-5-3-1--0--*-*-----*-*-*--0--*-*-*-6-5-3-5-3-1--|
-\--0-0-------0-1-3--0--0-0-0-6-5-3-5-3-1--0--0-0-----0-1-3--0--0-0-0-6-5-3-5-3-1--|


1:20
L
--------------------------------------------------------------------|
--------------------------------------------------------------------|
-7-7-777-7-7-7771010101010101010-9-9-999-9-9-999-6-6-666-6-66-6-66--|
-X-X-XXX-X-X-XXX-X-X-XXX-X-X-XXX-X-X-XXX-X-X-XXX-X-X-XXX-X-XX-X-XX--|
-5-5-555-5-5-555/8-8-888-8-8-888\7-7-777-7-7-777\4-4-444-4-44-4-44--|
--------------------------------------------------------------------|
R
-------------------------------------------------------------------|
-------------------------------------------------------------------|
-7-7-777-7-7-777-7-7-777-7-7-777-3-3-333-3-3-333-6-6-666-6-66-6-66-|
-X-X-XXX-X-X-XXX-X-X-XXX-X-X-XXX-X-X-XXX-X-X-XXX-X-X-XXX-X-XX-X-XX-|
-5-5-555-5-5-555-5-5-555-5-5-555\1-1-111-1-1-111/4-4-444-4-44-4-44-|
-------------------------------------------------------------------|


1:28
L
--------------------------------------------------------------------------------|
--------------------------------------------------------------------------------|
-7-7-777-7-7-7771010101010101010-9-9-999-9-9-999-15-15-151515-14-1414-14-1414---|
-X-X-XXX-X-X-XXX-X-X-XXX-X-X-XXX-X-X-XXX-X-X-XXX--X--X--X-X-X--X--X-X--X--X-X---|
-5-5-555-5-5-555/8-8-888-8-8-888\7-7-777-7-7-777\13-13-131313-12-1212-12-1212---|
--------------------------------------------------------------------------------|
R
-------------------------------------------------------------------|
-------------------------------------------------------------------|
-7-7-777-7-7-777-7-7-777-7-7-777-3-3-333-3-3-333-6-6-666-6-66-6-66-|
-X-X-XXX-X-X-XXX-X-X-XXX-X-X-XXX-X-X-XXX-X-X-XXX-X-X-XXX-X-XX-X-XX-|
-5-5-555-5-5-555-5-5-555-5-5-555\1-1-111-1-1-111/4-4-444-4-44-4-44-|
-------------------------------------------------------------------|


1:37
L
----------------------------------------------------------------------------|
----------------------------------------------------------------------------|
-7-7-777-7-7-777-7-7-777-13-13-131313101010101010-999-7-9-7-6--------__-----|
-X-X-XXX-X-X-XXX-X-X-XXX--X--X--X-X-X-X-X-XXX-X-X-XXX-X-X-X-X---**--/  \----|
-5-5-555-5-5-555-5-5-555/11-11-111111-8-8-888-8-8-777-5-7-5-4-4-44-454545---|
----------------------------------------------------------------------------|
R
----------------------------------------------------------------------------|
----------------------------------------------------------------------------|
-7-7-777-13-13-131313-7-7-777-7-7-777-3-3-333-3-3-333-6-6-666-6-66-6-66-----|
-X-X-XXX--X--X--X-X-X-X-X-XXX-X-X-XXX-X-X-XXX-X-X-XXX-X-X-XXX-X-XX-X-XX-----|
-5-5-555/11-11-111111\5-5-555-5-5-555\1-1-111-1-1-111/4-4-444-4-44-4-44-----|
----------------------------------------------------------------------------|


1:47
L
------------------------------------------------------------------------------------|
------------------------------------------------------------------------------------|
-7-7-777-7-7-777-7-7-777-13-13-1313131010101010101010-15151515151515-18-181818-1818-|
-X-X-XXX-X-X-XXX-X-X-XXX--X--X--X-X-X-X-X-XXX-X-X-XXX--X-X-X-X-X-X-X--X--X-X-X--X-X-|
-5-5-555-5-5-555-5-5-555/11-11-111111-8-8-888-8-8-888-13131313131313/16-161616-1616-|
------------------------------------------------------------------------------------|
R
----------------------------------------------------------------------------|
----------------------------------------------------------------------------|
-7-7-777-13-13-131313-7-7-777-7-7-777-3-3-333-3-3-333-6-6-666-6-66-6-66-----|
-X-X-XXX--X--X--X-X-X-X-X-XXX-X-X-XXX-X-X-XXX-X-X-XXX-X-X-XXX-X-XX-X-XX-----|
-5-5-555/11-11-111111\5-5-555-5-5-555\1-1-111-1-1-111/4-4-444-4-44-4-44-----|
----------------------------------------------------------------------------|

1:55
B        L      R      L      R      L      R     L
---------------------------------------------------------------|
---------------------------------------------------------------|
---------------*-*-----------*-*-----------*-*-----------------|
-*-*----*-*----7-7----*-*----7-7----*-*----7-7----*-*----------|
-0-0----0-0----5-5----0-0----5-5----0-0----5-5----0-0----------|
-0-0----0-0----0-0----0-0----0-0----0-0----0-0----0-0----------|


2:04
--------------------------------------------------------------|
--------------------------------------------------------------|
--------------------------------------------------------------|
-*-*----*-*----*-*----*-*----*-*----*-*----*-*----*-*---------|
-0-0----0-0----0-0----0-0----0-0----0-0----0-0----0-0--\------|
-0-0----0-0----0-0----0-0----0-0----0-0----0-0----0-0--\------|


2:09
L
---------------------------------------------------------------|
-------------///------------///---------///--------------------|
///----------10-------------12-----------13--------------------|
-12------------------------------------------------------------|
---------------------------------------------------------------|
---------------------------------------------------------------|
R
--------------------------------------------------------------|
--------------------------------------------------------------|
--------------------------------------------------------------|
-*-*----*-*----*-*----*-*----*-*----*-*----*-*----*-*---------|
-0-0----0-0----0-0----0-0----0-0----0-0----0-0----0-0---------|
-0-0----0-0----0-0----0-0----0-0----0-0----0-0----0-0---------|


2:14
POSITIONING-MIDDLE ON 4TH(2'S) RING ON 2ND (3'S)
INDEX DOES THE 1'S PINKY DOES 3 ON 1ST

----------0------1----------------0------1-----3-----1--------|
-----3------3----------------3------3------3-----3-----3------|
---2---2------2------------2---2------2------2-----2-----2----|
-0-----------------------0------------------------------------|
-0-----------------------0------------------------------------|
-0-----------------------0------------------------------------|


2:23
NOW MIDDLE JUMPS UP A STRING AND RING GOES TO THE 5TH

-----------------0-----------------------0----------------|
----------3-----------------------3--------3-----3--------|
-----0------0----------------0------0--------0-----0------|
---2---2------2------------2---2------2--------------2----|
-3-----------------------3--------------------------------|
----------------------------------------------------------|


2:30
----------0------1----------------0------1-----3-----1--------|
-----3------3----------------3------3------3-----3-----3------|
---2---2------2------------2---2------2------2-----2-----2----|
-0-----------------------0------------------------------------|
-0-----------------------0------------------------------------|
-0-----------------------0------------------------------------|


2:38
----------------0-------------------------------1--------|
---------3--------3---3-------------------3-----3--------|
----0------0--------0---0-------------0------0--2--------|
--2---2------2------------2---------2---2----------------|
3---------------------------------3----------------------|
---------------------------------------------------------|

  2:45                                                 _
                                                      / \
----------0------1----------3------1-----0-----1-----0-1-0------------|
-----3------3-----------------3------3-----3-----3---------3----------|
---2---2------2----------2------2------2-----2-----2---------0--------|
-0-----------------------0--------------------------------------------|
-0-----------------------0--------------------------------------------|
-0-----------------------0--------------------------------------------|


2;54
----------------0-------------------------------0-----------|
---------3--------3---3-------------------3-------3---3-----|
----0------0--------0---0-------------0-----0-------0---0---|
--2---2------2------------2---------2---2-----2-----------2-|
3---------------------------------3-------------------------|
------------------------------------------------------------|

3:00
MELODY
----------------------------------------------____-----------------------------------------|
---------------------------------------------/    \----------------10\8--------------10\8--|
-----------------9-7------/14--12--10--12--10-9-10-9--9-10-10-12-9------9-10-10-12-9-------|
-----------5-7-5---------------------------------------------------------------------------|
---5--77-8---------------------------------------------------------------------------------|
-------------------------------------------------------------------------------------------|
RYTHM
---------------------------------------------______---------------------------------------|
--------------------------------------------/      \--------------------------------------|
---------------------------7--9-10--12----10--9-10--9-------------------------------------|
---------------------------X--X--X---X-----X--X--X--X-------------------------------------|
-0-------------------------5--7--8--10-----8--7--8--7----10-------10---10-----10------10--|
-0-------------------------------------------------------10-------10---10-----10------10--|


3:10
M
----____-----------------------------------------------------------|
---/    \----------------10\8--^-------__--------------------------|
-10-9-10-9--9-10-10-12-9------9-10----/  \-------------------------|
------------------------------------10-12-10-----------)~----------|
---------------------------------------------12-10-8-10------------|
-------------------------------------------------------------------|
R
---______----------------------------------------------------------|
--/      \---------------------------------------------------------|
10--9-10--9-----------------------------_--------------------------|
-X--X--X--X----------------------------/ \-------------------------|
-8--7--8--7-10---10---10---10----10---3-5-3---------)--------------|
------------10---10---10---10----10----------6-5-3-5---------------|


3:14
M
--------------------------------------------------__-------------------------------------|
---------------------)---------------------------/  \------------------------------------|
---------------12--12-----------14--12--10--12--9-10-9-10/17-17\14-14\12-12\10-10-12-14--|
--------5-7-5----------------------------------------------------------------------------|
-5-77-8----------------------------------------------------------------------------------|
-----------------------------------------------------------------------------------------|
RYTHM
---------------------------------------------______---------------------------------------|
--------------------------------------------/      \--------------------------------------|
---------------------------7--9-10--12----10--9-10--9-------------------------------------|
---------------------------X--X--X---X-----X--X--X--X-------------------------------------|
-0-------------------------5--7--8--10-----8--7--8--7----10-------10---10-----10------10--|
-0-------------------------------------------------------10-------10---10-----10------10--|

3:24
----________------------------------------------------------------|
---/        \------------------------------__---------------------|
-12-14-12-14-12-17\14-14\12-12\10-10\9----/  \--------------------|
----------------------------------------10-12-10-----------)------|
-------------------------------------------------12-10-8-10-------|
------------------------------------------------------------------|
R
---______----------------------------------------------------------|
--/      \---------------------------------------------------------|
10--9-10--9-----------------------------_--------------------------|
-X--X--X--X----------------------------/ \-------------------------|
-8--7--8--7-10---10---10---10----10---3-5-3---------)--------------|
------------10---10---10---10----10----------6-5-3-5---------------|


3:28
----------------------------------------------------------------|
----------------------------------------------------------------|
------------------------------------------------_---------------|
-----------------------------------------------/ \----_---------|
-0-*-*-***-***-***-*-0-*-0-*-0----*-*-***-***-3-5-3--/ \---)----|
-0-0-0-000-000-000-0-0-0-0-0-0----0-0-000-000-------6-5-3-5-----|
R
---------------------------------------------------------------|
---------------------------------------------------------------|
---------------------------------------------------------------|
---------------------------------------------------------------|
-0-------------------------------------------------------------|
-0-------------------------------------------------------------|

3:33
L
---------------------------------------------------------------|
---------------------------------------------------------------|
---------------------13---13--13--------------_----------------|
---------------------12---12--12\------------/ \----_---P------|
-0-*-*-***-***-***-*----*---*-----*-*-***-*-3-5-3--/ \--H~~----|
-0-0-0-000-000-000-0----0---0-----0-0-000-0-------6-5-3-3------|
R
---------------------------------------------------------------|
---------------------------------------------------------------|
-7-------------------------------------------------------------|
-X-------------------------------------------------------------|
-5----------------------------------------*--------------------|
------------------------------------------0--------------------|

3:38
B
---------------------------------------------------------------|
---------------------------------------------------------------|
---------------------------------------------------------------|
--------^---------------------------^--------------------------|
-0-*-*-3-5-*-*-***-***--^--*-0-*-*-3-5-*-6--6-6--1--1-1--------|
-0-0-0-----0-0-000-000-5-3-0-0-0-0-----0-6--6-6--1--1-1--------|

3:42
L
---------------------------------------------------------------|
---------------------------------------------------------------|
-----------------------------------------8--8-8--3--3-3--------|
--------^---------------------------^----X--X-X--X--X-X--------|
-0-*-*-7-8-*-*-***-***--^--*-0-*-*-7-8-*-6--6-6--1--1-1--------|
-0-0-0-----0-0-000-000-5-3-0-0-0-0-----0-----------------------|
R
---------------------------------------------------------------|
---------------------------------------------------------------|
---------------------------------------------------------------|
--------^---------------------------^--------------------------|
-0-*-*-3-5-*-*-***-***--^--*-0-*-*-3-5-*-6--6-6--1--1-1--------|
-0-0-0-----0-0-000-000-5-3-0-0-0-0-----0-6--6-6--1--1-1--------|

3:48
L
---------------------------------------------------------------|
---------------------------------------------------------------|
-7-------------------------------------------------------------|
-X------^---------------------------^--------------------------|
-5\*-*-3-5-*-*-***-***--^--*-0-*-*-3-5-*-6--6-6--1--1-1--------|
---0-0-----0-0-000-000-5-3-0-0-0-0-----0-6--6-6--1--1-1--------|
R
---------------------------------------------------------------|
---------------------------------------------------------------|
---------------------------------------------------------------|
--------^---------------------------^--------------------------|
-0-*-*-3-5-*-*-***-***--^--*-0-*-*-3-5-*-6--6-6--1--1-1--------|
-0-0-0-----0-0-000-000-5-3-0-0-0-0-----0-6--6-6--1--1-1--------|

3:52
L
--------------------------------------------------------|
--------------------------------------------------------|
--------------------------------------------------------|
--------^---------------------------^-------------------|
-0-*-*-7-8-*-*-***-***--^--*-0-*-*-7-8-*--6-5-3-5-3-1---|
-0-0-0-----0-0-000-000-5-3-0-0-0-0-----0--6-5-3-5-3-1---|
R
--------------------------------------------------------|
--------------------------------------------------------|
--------------------------------------------------------|
--------^---------------------------^-------------------|
-0-*-*-3-5-*-*-***-***--^--*-0-*-*-3-5-*----------------|
-0-0-0-----0-0-000-000-5-3-0-0-0-0-----0----------------|

3:56
B
-----------------------------------------------------------------------------------|
-----------------------------------------------------------------------------------|
-----------------------------------------------------------------------------------|
-----------------------------------------------------------------------------------|
-0--*-*-----*-*-*--0--*-*-*-6-5-3-5-3-1--0--*-*-----*-*-*--0--*-*-*-6-5-3-5-3-1----|
-0--0-0-----0-1-3--0--0-0-0-6-5-3-5-3-1--0--0-0-----0-1-3--0--0-0-0-6-5-3-5-3-1----|


4:05
L
-----------------------------------------------------------------------------------|
-----------------------------------------------------------------------------------|
-----------P-----------------------------------------------------------------------|
-----------H)----------------------------------------------------------------------|
-0--*-*-**-3--*-*-*--0--*-*-*-6-5-3-5-3-1--0--*-*-----*-*-*--0--*-*-*-6-5-3-5-3-1--|
-0--0-0-00----0-1-3--0--0-0-0-6-5-3-5-3-1--0--0-0-----0-1-3--0--0-0-0-6-5-3-5-3-1--|
R
-----------------------------------------------------------------------------------|
-----------------------------------------------------------------------------------|
-----------------------------------------------------------------------------------|
-----------------------------------------------------------------------------------|
-\--*-*-------*-*-*--0--*-*-*-6-5-3-5-3-1--0--*-*-----*-*-*--0--*-*-*-6-5-3-5-3-1--|
-\--0-0-------0-1-3--0--0-0-0-6-5-3-5-3-1--0--0-0-----0-1-3--0--0-0-0-6-5-3-5-3-1--|


4:13
L
---------------------------------------------------------------|
---------------------------------------------------------------|
---------------------------------------------------------------|
--------------6-5-3-5-3-1--------------------------------------|
--6-5-3-5-3-1--------------------------------------------------|
---------------------------------------------------------------|
R
---------------------------------------------------------------|
---------------------------------------------------------------|
---------------------------------------------------------------|
---------------------------------------------------------------|
--6-5-3-5-3-1--6-5-3-5-3-1-------------------------------------|
--6-5-3-5-3-1--6-5-3-5-3-1-------------------------------------|
Добавлено: 05.10.2013
Другие материалы по этой песне:
  • Аккорды и текст

Страница создана 21.04.2012
http://primanota.ru/the-autumn-offering/homecoming-chords.htm
Привет, Гость.
Предлагаем пройти революционный курс по гитаре.
Подарок от PrimaNota.Ru, забирай!