PrimaNota.ru - самый крупный в мире бесплатный архив песенных текстов, аккордов, табулатур и нот


The Autumn Offering - Doomed Generation - текст песни, таба, видео

Регистрация Запомнить меня
Войти через:  Facebook Google Twitter Vk Yandex Mail.ru

The Autumn Offering - Doomed Generation - текст песни, таба, видео

Печатать
Просмотров: 89
THE AUTUMN OFFERING 
DOOMED GENERATION
C#-G#-C#-F#-A#-D#
*=PALM MUTE
^=HAMMER ON/PULL OFF
H=HARMONIC
SPH=SEMI PINCH HARMONIC


TABBED BY-andherembrace



TABB INCLUDES WHOLE SONG W/ BOTH GTR PARTS



BOTH
---------------------------------------------------------------------------|
---------------------------------------------------------------------------|
---------------------------------------------------------------------------|
---------------------------------------------------------------------------|
-****--^--**--^---^--****--^---^---^--****--^--**--^---^--****--^---^---^--|
-0000-1-0-00-1-0-1-0-0000-1-0-4-3-1-3-0000-1-0-00-1-0-1-0-0000-1-0-4-3-1-3-|

0:07
----------------------------------------------------------------------------|
----------------------------------------------------------------------------|
----------------------------------------------------------------------------|
----------------------------------------------------------------------------|
-****--^--**--^---^--****--^---^---^--****--^--**--^---^--****--^---^---^--*|
-0000-1-0-00-1-0-1-0-0000-1-0-4-3-1-3-0000-1-0-00-1-0-1-0-0000-1-0-4-3-1-3-0|


0:12

----11----11----11----11----11----11----11-------|
-15----15----15----15----15----15----15----------|
-------------------------------------------------|
-------------------------------------------------|
---------------------------------------------\---|
---------------------------------------------\---|


0:14
L
---------------------------------------------------------------------|
-----------------------------------------------------___-----___-----|
----------------------------------------------^-----/   \---/   \----|
-----^-----------^----------------^----------8-7---6-7-6-7-5-6-5-6---|
-**-1-0-**-****-1-0-*-4-3-1-3-**-1-0-**-****-----*-------------------|
-00-1-0-00-0000-1-0-0-4-3-1-3-00-1-0-00-0000-----0-------------------|
R
--------------------------------------------------------------------|
--------------------------------------------------------------------|
-----------------------------------------------------___-----___----|
-----^-----------^----------------^-----------^-----/   \---/   \---|
-**-1-0-**-****-1-0-*-4-3-1-3-**-1-0-**-****-6-5-*-4-5-4-5-3-4-3-4--|
-00-1-0-00-0000-1-0-0-4-3-1-3-00-1-0-00-0000-----0------------------|


0:19
L
---------------------------------------------------------------------|
-----------------------------------------------------___-----___-----|
----------------------------------------------^-----/   \---/   \----|
-----^-----------^----------------^----------8-7---6-7-6-7-5-6-5-6---|
-**-1-0-**-****-1-0-*-4-3-1-3-**-1-0-**-****-----*-------------------|
-00-1-0-00-0000-1-0-0-4-3-1-3-00-1-0-00-0000-----0-------------------|
R
--------------------------------------------------------------------|
--------------------------------------------------------------------|
-----------------------------------------------------___-----___----|
-----^-----------^----------------^-----------^-----/   \---/   \---|
-**-1-0-**-****-1-0-*-4-3-1-3-**-1-0-**-****-6-5-*-4-5-4-5-3-4-3-4--|
-00-1-0-00-0000-1-0-0-4-3-1-3-00-1-0-00-0000-----0------------------|


0:24
L
---------------------------------------------------------------------|
-----------------------------------------------------___-----___-----|
----------------------------------------------^-----/   \---/   \----|
-----^-----------^----------------^----------8-7---6-7-6-7-5-6-5-6---|
-**-1-0-**-****-1-0-*-4-3-1-3-**-1-0-**-****-----*-------------------|
-00-1-0-00-0000-1-0-0-4-3-1-3-00-1-0-00-0000-----0-------------------|
R
--------------------------------------------------------------------|
--------------------------------------------------------------------|
-----------------------------------------------------___-----___----|
-----^-----------^----------------^-----------^-----/   \---/   \---|
-**-1-0-**-****-1-0-*-4-3-1-3-**-1-0-**-****-6-5-*-4-5-4-5-3-4-3-4--|
-00-1-0-00-0000-1-0-0-4-3-1-3-00-1-0-00-0000-----0------------------|


0;30
L
---------------------------------------------------------------------|
-----------------------------------------------------___-----___-----|
----------------------------------------------^-----/   \---/   \----|
-----^-----------^----------------^----------8-7---6-7-6-7-5-6-5-6---|
-**-1-0-**-****-1-0-*-4-3-1-3-**-1-0-**-****-----*-------------------|
-00-1-0-00-0000-1-0-0-4-3-1-3-00-1-0-00-0000-----0-------------------|
R
--------------------------------------------------------------------|
--------------------------------------------------------------------|
-----------------------------------------------------___-----___----|
-----^-----------^----------------^-----------^-----/   \---/   \---|
-**-1-0-**-****-1-0-*-4-3-1-3-**-1-0-**-****-6-5-*-4-5-4-5-3-4-3-4--|
-00-1-0-00-0000-1-0-0-4-3-1-3-00-1-0-00-0000-----0------------------|


0:35
BOTH
-------------------------------------------------|
-------------------------------------------------|
-------------------------------------------------|
-------------------------------------------------|
-**0---***-***-***---**0---***-***-***--***-***--|
-000---000-000-000---000---000-000-000--000-000--|

--------------------------------------------------|
--------------------------------------------------|
--------------------------------------------------|
--------------------------------------------------|
-**0---***-***-***---**0---***-***-***--***-***---|
-000---000-000-000---000---000-000-000--000-000---|


0:48
1

----11----11----11----11----11---11----11----11----11-|
-15----15----15----15----15---15----15----15----15----|
------------------------------------------------------|
------------------------------------------------------|
------------------------------------------------------|
------------------------------------------------------|

----11----11----11----11----11----11----11----11---|
-15----15----15----15----15----15----15----15------|
---------------------------------------------------|
---------------------------------------------------|
---------------------------------------------------|
---------------------------------------------------|

2
------------------------------------------------------|
------------------------------------------------------|
------------------------------------------------------|
-*-*----------*-*----------*-*----------*-*-----------|
-0-0----------0-0----------0-0----------0-0-----------|
-0-0----------0-0----------0-0----------0-0-----------|

------------------------------------------------------|
------------------------------------------------------|
------------------------------------------------------|
-*-*----------*-*----------*-*----------*-*-----------|
-0-0----------0-0----------0-0----------0-0-----------|
-0-0----------0-0----------0-0----------0-0-----------|


0:53
L
----------------------------------------------------|
----------------------------------------------------|
--------------------------8888888888888888-55555555-|
--------------------------6666666666666666-33333333-|
-*-0--**-0--**-0--**-0--*-6666666666666666-33333333-|
-0-0--00-0--00-0--00-0--0-6666666666666666-33333333-|

--------------------------------------------|
--------------------------------------------|
----------------------_-----_-----_-----_---|
-6666-3333-22222222--/ \---/ \---/ \---/ \--|
-4444-1111-00000000-5-6-5-4-5-4-3-4-3-2-3-2-|
-4444-1111-00000000-------------------------|
-4444-1111-00000000-------------------------|

R
-----------------------------------------------------|
-----------------------------------------------------|
-----------------------------------------------------|
-----------------------------------------------------|
-*-0--**-0--**-0--**-0--*-6666666666666666-33333333--|
-0-0--00-0--00-0--00-0--0-6666666666666666-33333333--|

-------------------------------------------------|
-------------------------------------------------|
----------------------_-----_-----_-----_--------|
---------------------/ \---/ \---/ \---/ \-------|
-4444-1111-00000000-5-6-5-4-5-4-3-4-3-2-3-2------|
-4444-1111-00000000------------------------------|


1:02
L
--------------------------------------------|
--------------------------------------------|
--------------------------8888888888888888--|
--------------------------6666666666666666--|
-*-0--**-0--**-0--**-0--*-6666666666666666--|
-0-0--00-0--00-0--00-0--0-6666666666666666--|

-----------------------------------------|
-----------------------------------------|
-33333333-4444-1111-00000000-------------|
-33333333-4444-1111-00000000-------------|
-33333333-4444-1111-00000000-----------3-|
-33333333-4444-1111-00000000--4--3--2--3-|

R
---------------------------------------------|
---------------------------------------------|
---------------------------------------------|
---------------------------------------------|
-*-0--**-0--**-0--**-0--*-6666666666666666---|
-0-0--00-0--00-0--00-0--0-6666666666666666---|

---------------------------------------------|
---------------------------------------------|
---------------------------------------------|
---------------------------------------------|
-33333333-4444-1111-00000000-----------3-----|
-33333333-4444-1111-00000000--4--3--2--3-----|


1:12
L
---------------------------------------------------------------TREM PICK-|
----------------------------------------------------------------HARMONICS|
-33333333-6666-3333-2222222222222222-888888888888-3333-22222222----------|
-11111111-4444-1111-0000000000000000-666666666666-1111-00000000----------|
-11111111-4444-1111-0000000000000000-666666666666-1111-00000000--/-------|
-11111111-4444-1111-0000000000000000-666666666666-1111-00000000----------|
R
-----------------------------------------------------------------|
-----------------------------------------------------------------|
-----------------------------------------------------------------|
-----------------------------------------------------------------|
-11111111-4444-1111-0000000000000000-666666666666-1111-00000000--|
-11111111-4444-1111-0000000000000000-666666666666-1111-00000000-/|


1:22
L
----------------------------------------------------------------------|
----------------------------------------------------------------------|
-33333333-6666-3333-2222222222222222-888888888888-3333----------------|
-11111111-4444-1111-0000000000000000-666666666666-1111-*-*-*-*-*-*-*-*|
-11111111-4444-1111-0000000000000000-666666666666-1111-0-0-0-0-0-0-0-0|
-11111111-4444-1111-0000000000000000-666666666666-1111-0-0-0-0-0-0-0-0|
R
----------------------------------------------------------------------|
----------------------------------------------------------------------|
----------------------------------------------------------------------|
-------------------------------------------------------*-*-*-*-*-*-*-*|
-11111111-4444-1111-0000000000000000-666666666666-1111-0-0-0-0-0-0-0-0|
-11111111-4444-1111-0000000000000000-666666666666-1111-0-0-0-0-0-0-0-0|


1:31
L

----11----11----11----11----11---11----11----11----11-|
-15----15----15----15----15---15----15----15----15----|
------------------------------------------------------|
------------------------------------------------------|
------------------------------------------------------|
------------------------------------------------------|

----11----11----11----11----11----11----11----11---|
-15----15----15----15----15----15----15----15------|
---------------------------------------------------|
---------------------------------------------------|
---------------------------------------------------|
---------------------------------------------------|

R
------------------------------------------------|
------------------------------------------------|
------------------------------------------------|
------------------------------------------------|
-**0---------**0---------**0---------**0--------|
-000---------000---------000---------000--------|

-------------------------------------------------|
-------------------------------------------------|
-------------------------------------------------|
-------------------------------------------------|
**0---------**0---------**0---------**0---***-***|
000---------000---------000---------000---000-000|


1:37
L

----11----11----11----11----11---11----11----11----11-|
-15----15----15----15----15---15----15----15----15----|
------------------------------------------------------|
------------------------------------------------------|
------------------------------------------------------|
------------------------------------------------------|

----11----11----11----11----11----11----11----11---|
-15----15----15----15----15----15----15----15------|
---------------------------------------------------|
---------------------------------------------------|
---------------------------------------------------|
---------------------------------------------------|

R
--------------------------------------------------|
--------------------------------------------------|
--------------------------------------------------|
--------------------------------------------------|
-**0---------**0---------**0---------**0----------|
-000---------000---------000---------000----------|

-----------------------------------------------|
-----------------------------------------------|
-----------------------------------------------|
-----------------------------------------------|
-**0---------**0---------**0---------**0--PS---|
-000---------000---------000---------000----\--|


L

--------------------------|
--------------------------|
--------------------------|
--------------------------|
-*-*----------**----------|
-0-0----------00-\--------|


1:46
L
----11----11----11----11----11---11----11----11----11-|
-15----15----15----15----15---15----15----15----15----|
------------------------------------------------------|
------------------------------------------------------|
------------------------------------------------------|
------------------------------------------------------|

----11----11----11----11----11----11----11----11---|
-15----15----15----15----15----15----15----15------|
---------------------------------------------------|
---------------------------------------------------|
---------------------------------------------------|
---------------------------------------------------|


R---------------------------------------------------|
----------------------------------------------------|
----------------------------------------------------|
----------------------------------------------------|
-**0---------**0---------**0---------**0---***-***--|
-000---------000---------000---------000---000-000--|

---------------------------------------------|
---------------------------------------------|
---------------------------------------------|
---------------------------------------------|
-**0---------**0---------**0---------**0-----|
-000---------000---------000---------000-----|



1:50
L
----11----11----11----11----11---11----11----11----|
-15----15----15----15----15---15----15----15-------|
---------------------------------------------------|
---------------------------------------------------|
---------------------------------------------------|
---------------------------------------------------|
R
---------------------------------------------------------------|
---------------------------------------------------------------|
---------------------------------------------------------------|
---------------------------------------------------------------|
-**0--------------**0--------------**0--------------**0---\----|
-000--------------000--------------000--------------000---\----|



1:53

----11----11----11----11----11---11----11----11----11-|
-15----15----15----15----15---15----15----15----15----|
------------------------------------------------------|
------------------------------------------------------|
------------------------------------------------------|
------------------------------------------------------|

----11----11----11----11----11----11----11----11---|
-15----15----15----15----15----15----15----15------|
---------------------------------------------------|
---------------------------------------------------|
---------------------------------------------------|
---------------------------------------------------|

2
------------------------------------------------------|
------------------------------------------------------|
------------------------------------------------------|
-*-*----------*-*----------*-*----------*-*-----------|
-0-0----------0-0----------0-0----------0-0-----------|
-0-0----------0-0----------0-0----------0-0-----------|

------------------------------------------------------|
------------------------------------------------------|
------------------------------------------------------|
-*-*----------*-*----------*-*----------*-*-----------|
-0-0----------0-0----------0-0----------0-0-----------|
-0-0----------0-0----------0-0----------0-0-----------|


1:58
L
--------------------S-S---------------------------|
--------------------P-P----------------------S----|
--------------------H-H----------------------P----|
--------------------7-6----------------------H----|
-5-5-7-8-5--5-5-7-8-----5-6-6-8-9-6--6-6-8-9-9-6--|
--------------------------------------------------|

------------------------------------------------------|
----------------------------------S----------S--------|
----------------------------------P----------P--------|
--------------------7-6-----------H----------H--------|
-5-5-7-8-5--5-5-7-8-----5-6-6-8-9-6--6-6-8-9-9-6------|
------------------------------------------------------|

R
-------------------------------------------------|
-------------------------------------------------|
-------------------------------------------------|
-------------------------------------------------|
-0-***-*-0--0-***-0-6-5-0-1-***-*-1--1-***-*-4-1-|
-0-000-0-0--0-000-0-6-5-0-1-111-1-1--1-111-1-4-1-|

---------------------------------------------------|
---------------------------------------------------|
---------------------------------------------------|
---------------------------------------------------|
-0-***-*-0--0-***-0-6-5-0-1-***-*-1--1-***-*-4-1---|
-0-000-0-0--0-000-0-6-5-0-1-111-1-1--1-111-1-4-1---|


2:10
L
--------------------------------------------------|
--------------------------------------------------|
--------------------------------------------------|
--------------------7-6---------------------------|
-5-5-7-8-5--5-5-7-8-----5-6-6-8-9-6--6-6-8-9-9-6--|
--------------------------------------------------|

--------------------S-S------------------------------|
--------------------P-P----------------------S-------|
--------------------H-H----------------------P-------|
--------------------7-6----------------------H-------|
-5-5-7-8-5--5-5-7-8-----5-6-6-8-9-6--6-6-8-9-9-6-----|
-----------------------------------------------------|


R
-------------------------------------------------|
-------------------------------------------------|
-------------------------------------------------|
-------------------------------------------------|
-0-***-*-0--0-***-0-6-5-0-1-***-*-1--1-***-*-4-1-|
-0-000-0-0--0-000-0-6-5-0-1-111-1-1--1-111-1-4-1-|

---------------------------------------------------|
---------------------------------------------------|
---------------------------------------------------|
---------------------------------------------------|
-0-***-*-0--0-***-0-6-5-0-1-***-*-1--1-***-*-4-1---|
-0-000-0-0--0-000-0-6-5-0-1-111-1-1--1-111-1-4-1---|



2:20

BOTH
--------------------------------------------------------------------------|
--------------------------------------------------------------------------|
--------------------------------------------------------------------------|
*-*-*--*-*-*-------*-*-*--*-*-*-----*-*-*---*-*-*-------*-*-*-P--*-*-*----|
0-0-0--0-0-0-6-5-0-1-1-1--1-1-1-4-1-0-0-0---0-0-0-6-5-0-1-1-1-H~~1-1-1-4-1|
0-0-0--0-0-0-6-5-0-1-1-1--1-1-1-4-1-0-0-0-V-0-0-0-6-5-0-1-1-1-2--1-1-1-4-1|


2:35
L
--------------------------------------------------------------------------|
--------------------------------------------------------------------------|
------H-------------------------------------------------------------------|
*-*-*-5/-*-*-*-------*-*-*--*-*-*------*-*-*--*-*-*-------*-*-*--*-*-*----|
0-0-0----0-0-0-6-5-0-1-1-1--1-1-1-4-1--0-0-0--0-0-0-6-5-0-1-1-1--1-1-1-4-1|
0-0-0----0-0-0-6-5-0-1-1-1--1-1-1-4-1--0-0-0--0-0-0-6-5-0-1-1-1--1-1-1-4-1|
R
--------------------------------------------------------------------------|
--------------------------------------------------------------------------|
--------------------------------------------------------------------------|
*-*-*----*-*-*-------*-*-*--*-*-*------*-*-*--*-*-*-------*-*-*--*-*-*----|
0-0-0----0-0-0-6-5-0-1-1-1--1-1-1-4-1--0-0-0--0-0-0-6-5-0-1-1-1--1-1-1-4-1|
0-0-0-3/-0-0-0-6-5-0-1-1-1--1-1-1-4-1--0-0-0--0-0-0-6-5-0-1-1-1--1-1-1-4-1|

2:48
BOTH
-------------------------------------------------|
-------------------------------------------------|
---___________________-----___________________---|
--/                   \---/                   \--|
-5-6-5-6-5-6-5-6-5-6-5-6-6-7-6-7-6-7-6-7-6-7-6-7-|
-------------------------------------------------|

--------------------------------------------------|
---___________________-----___________________----|
--/                   \---/                   \---|
-8-9-8-9-8-9-8-9-8-9-8-9-7-8-7-8-7-8-7-8-7-8-7-8--|
--------------------------------------------------|
--------------------------------------------------|


2:52
BOTH
-------------------------------------------------|
-------------------------------------------------|
---___________________-----___________________---|
--/                   \---/                   \--|
-5-6-5-6-5-6-5-6-5-6-5-6-6-7-6-7-6-7-6-7-6-7-6-7-|
-------------------------------------------------|

--------------------------------------------------|
---___________________-----___________________----|
--/                   \---/                   \---|
-8-9-8-9-8-9-8-9-8-9-8-9-7-8-7-8-7-8-7-8-7-8-7-8--|
--------------------------------------------------|
--------------------------------------------------|


2:56
L
---------------------------------------------------|
---___________________-----___________________-----|
--/                   \---/                   \----|
-7-8-7-8-7-8-7-8-7-8-7-8-8-9-8-9-8-9-8-9-8-9-8-9---|
---------------------------------------------------|
---------------------------------------------------|

----__________________------_____________-----------|
---/                  \----/             \----------|
-111211121112111211121112-910910910910910910--------|
----------------------------------------------------|
----------------------------------------------------|
----------------------------------------------------|

R
-------------------------------------------------|
-------------------------------------------------|
---___________________-----___________________---|
--/                   \---/                   \--|
-5-6-5-6-5-6-5-6-5-6-5-6-6-7-6-7-6-7-6-7-6-7-6-7-|
-------------------------------------------------|

--------------------------------------------------|
---___________________-----___________________----|
--/                   \---/                   \---|
-8-9-8-9-8-9-8-9-8-9-8-9-7-8-7-8-7-8-7-8-7-8-7-8--|
--------------------------------------------------|
--------------------------------------------------|


3:00
L
---------------------------------------------------|
---___________________-----___________________-----|
--/                   \---/                   \----|
-7-8-7-8-7-8-7-8-7-8-7-8-8-9-8-9-8-9-8-9-8-9-8-9---|
---------------------------------------------------|
---------------------------------------------------|

----__________________------_____________-----------|
---/                  \----/             \----------|
-111211121112111211121112-910910910910910910--------|
----------------------------------------------------|
----------------------------------------------------|
----------------------------------------------------|

R
-------------------------------------------------|
-------------------------------------------------|
---___________________-----___________________---|
--/                   \---/                   \--|
-5-6-5-6-5-6-5-6-5-6-5-6-6-7-6-7-6-7-6-7-6-7-6-7-|
-------------------------------------------------|

--------------------------------------------------|
---___________________-----___________________----|
--/                   \---/                   \---|
-8-9-8-9-8-9-8-9-8-9-8-9-7-8-7-8-7-8-7-8-7-8-7-8--|
--------------------------------------------------|
--------------------------------------------------|


3:03
BOTH
---------------------------------------------------------------|
---------------------------------------------------------------|
----------------------------H----------------------------------|
-*----*-*-*----*----*-*-*---5--*----*-*-*----*----*-*-*--------|
-0----0-0-0----0----0-0-0------0----0-0-0----0----0-0-0---\----|
-0----0-0-0----0----0-0-0------0----0-0-0----0----0-0-0---\----|

3:14
B
---------------------------------------------------------------|
---------------------------------------------------------------|
----------------------------H-----------------------------H----|
------*-*-*---------*-*-*---5-------*-*-*---------*-*-*---5----|
-0----0-0-0----0----0-0-0------0----0-0-0----0----0-0-0---\----|
-0----0-0-0----0----0-0-0------0----0-0-0----0----0-0-0---\----|


3:24
B
---------------------------------------------------------------|
---------------------------------------------------------------|
----------------------------H----------------------------------|
------*-*-*---------*-*-*---5-------*-*-*-----*----*-*---------|
-0----0-0-0----0----0-0-0------0----0-0-0--\--0----0-0-0-------|
-0----0-0-0----0----0-0-0------0----0-0-0--\--0----0-0-0-------|
GT3
---------------------------------------------------------------|
---------------------------------------------------------------|
-14---------------12----------10-12-10101010-------------------|
--X----------------X-----------X--X-X--XXX-----*----*-*--------|
-12---------------10-----------8-10-8--888--\--0----0-0-0------|
--------------------------------------------\--0----0-0-0------|
Добавлено: 08.11.2013
Другие материалы по этой песне:
  • Аккорды и текст

Страница создана 19.06.2012
http://primanota.ru/the-autumn-offering/doomed-generation-chords.htm
Привет, Гость.
Предлагаем пройти революционный курс по гитаре.
Подарок от PrimaNota.Ru, забирай!