PrimaNota.ru - самый крупный в мире бесплатный архив песенных текстов, аккордов, табулатур и нот


The Autumn Offering - Beginnings End - текст песни, таба, видео

Регистрация Запомнить меня
Войти через:  Facebook Google Twitter Vk Yandex Mail.ru

The Autumn Offering - Beginnings End - текст песни, таба, видео

Печатать
Просмотров: 69
THE AUTUMN OFFERING
BEGINNING'S END
C#G#C#F#A#D#

TABBED BY andherembrace

L
---------------------------------------------------------------|
---------------------------------------------------------------|
---------------------------------------------------------------|
---------------------------------------------------------------|
-**-7-**-8-**-10-**-8-**-7-7-**-7-**-8-**-10-**-8-**-7---------|
-00---00---00----00---00-----00---00---00----00---00-----------|
R
---------------------------------------------------------------|
---------------------------------------------------------------|
---------------------------------------------------------------|
-**------------------------------------------------------------|
-00------------------------------------------------------------|
-00------------------------------------------------------------|


0:04
L
---------------------------------------------------------------|
---------------------------------------------------------------|
---------------------------------------------------------------|
---------------------------------------------------------------|
-**-7-**-8-**-10-**-8-**-7-7-**-7-**-8-**-10-**-8-**-7---------|
-88---88---88----88---88-----88---88---88----88---88-----------|
R
---------------------------------------------------------------|
---------------------------------------------------------------|
---------------------------------------------------------------|
-----------------------------**--------------------------------|
-8---------------------------88--------------------------------|
-8---------------------------88--------------------------------|

0:09
L
---------------------------------------------------------------|
---------------------------------------------------------------|
---------------------------------------------------------------|
---------------------------------------------------------------|
-**-7-**-8-**-10-**-8-**-7-7-**-7-**-8-**-10-**-8-**-7---------|
-00---00---00----00---00-----00---00---00----00---00-----------|
R
---------------------------------------------------------------|
---------------------------------------------------------------|
---------------------------------------------------------------|
-----------------------------**--------------------------------|
-0---------------------------00--------------------------------|
-0---------------------------00--------------------------------|


0:14
L
---------------------------------------------------------------|
---------------------------------------------------------------|
---------------------------------------------------------------|
---------------------------------------------------------------|
-**-7-**-8-**-10-**-8-**-7-7-**-7-**-8-**-10-8-7--^------------|
-88---88---88----88---88-----88---88---88--------7-8-/-\-------|
R
---------------------------------------------------------------|
---------------------------------------------------------------|
---------------------------------------------------------------|
-----------------------------**--------------------------------|
-8---------------------------88------------8------8------------|
-8---------------------------88------------8|-----8|-/-\-------|


0:18
L
---------------------------------------------------------------|
---------------------------------------------------------------|
---------------------------------------------------------------|
---------------------------------------------------------------|
-**-7-**-8-**-10-**-8-**-7-7-**-7-**-8-**-10-**-8-**-7---------|
-00---00---00----00---00-----00---00---00----00---00-----------|
R
---------------------------------------------------------------|
---------------------------------------------------------------|
---------------------------------------------------------------|
---------------------------------------------------------------|
-0---------------------------0-----------------2--3------------|
-0---------------------------0-----------------2--3------------|


0:23
L
---------------------------------------------------------------|
---------------------------------------------------------------|
---------------------------------------------------------------|
----------------^-----^-----^----------------------------------|
-**-7-**-8-**-10-8-*-7-8-*-7-8-**-7-**-8-**-10-8-7--^----------|
-88---88---88------8-----8-----88---88---88--------7-8-/-\-----|
R
---------------------------------------------------------------|
---------------------------------------------------------------|
---------------------------------------------------------------|
---------------------------------------------------------------|
-8-----------------------------------5-------------------------|
-8-----------------------------------5-----------------/-\-----|


0:28
L
---------------------------------------------------------------|
---------------------------------------------------------------|
---------------------------------------------------------------|
---------------------------------------------------------------|
-**-7-**-8-**-10-**-8-**-7-7-**-7-**-8-**-10-**-8-**-7---------|
-00---00---00----00---00-----00---00---00----00---00-----------|
R
---------------------------------------------------------------|
---------------------------------------------------------------|
---------------------------------------------------------------|
---------------------------------------------------------------|
-0---------------------------0-----------------2--3------------|
-0---------------------------0-----------------2--3------------|


0;32
L
---------------------------------------------------------------|
---------------------------------------------------------------|
---------------------------------------------------------------|
----------------^-----^-----^----------------------------------|
-**-7-**-8-**-10-8-*-7-8-*-7-8-**-7-**-8-**-10-8-7--^----------|
-88---88---88------8-----8-----88---88---88--------7-8-/-\-----|
R
---------------------------------------------------------------|
---------------------------------------------------------------|
---------------------------------------------------------------|
---------------------------------------------------------------|
-8------------------------------8-----5----------7-------------|
-8------------------------------8-----5----------7-----/-\-----|


0:37
L
-------------------------------------------|
-------------------------------------------|
----GT1--15-14-12-14-12-10-12-14-10--------|
----GT2--8-7----7------8-10-7--------------|
-0-----------10---10-8---------------------|
-0-----------------------------------------|
R
-------------------------------------------|
-------------------------------------------|
-------------------------------------------|
-------0-----------------------------------|
-0-----0------2--3--8---------------8------|
-0-----0------2--3--8---------------8|-----|


0:45
L
-------------------------------------------|
-------------------------------------------|
----GT1--15-14-12-14-12-10-12-14-15--------|
----GT2--8-7----7---------7-8--------------|
-0-----------10---10-8-10--------------5---|
-0-----------------------------------------|
R
---------------------------------------------------------------|
---------------------------------------------------------------|
---------------------------------------------------------------|
-------0-------------------------------------------------------|
-0-----0------2--3--8---------------5--------------------------|
-0-----0------2--3--8---------------5|---------/-\-------------|

0:54
L
---------------------------------------------------------------|
---------------------------------------------------------------|
---------------------------------------------------------------|
---------------------------------------------------------------|
-**-7-**-8-**-10-**-8-**-7-7-**-7-**-8-**-10-**-8-**-7---------|
-00---00---00----00---00-----00---00---00----00---00-----------|

R
--------------------------------------------------------------|
---------------------------------------------------------------|
---------------------------------------------------------------|
---------------------------------------------------------------|
-0---------------------------0-----------------2--3------------|
-0---------------------------0-----------------2--3------------|


0:54
L
---------------------------------------------------------------|
---------------------------------------------------------------|
---------------------------------------------------------------|
----------------^-----^-----^----------------------------------|
-**-7-**-8-**-10-8-*-7-8-*-7-8-**-7-**-8-**-10-8-7--^----------|
-88---88---88------8-----8-----88---88---88--------7-8-/-\-----|
R
---------------------------------------------------------------|
---------------------------------------------------------------|
---------------------------------------------------------------|
---------------------------------------------------------------|
-8-----------------------------------5-------------------------|
-8-----------------------------------5-----------------/-\-----|

1:03
L
-------------------------------------------------------------|
-------------------------------------------------------------|
-------------------------------------------------------------|
----------------^-----^-----^-----------------^-----^--------|
-**-7-**-8-**-10-8-*-7-8-*-7-8-**-7-**-8-**-10-8-*-7-8-*--7--|
-00---00---00------0-----0-----00---00---00------0-----0-----|
R
---------------------------------------------------------------|
---------------------------------------------------------------|
---------------------------------------------------------------|
---------------------------------------------------------------|
-0---------------------------0-----------------2--3------------|
-0---------------------------0-----------------2--3------------|


1:08
L
---------------------------------------------------------------|
---------------------------------------------------------------|
---------------------------------------------------------------|
---------------------------------------------------------------|
-**-7-**-8-**-10-8-*-7-8-*-7-8-**-7-**-8-**-10-8-7--^----------|
-88---88---88------8-----8-----88---88---88--------7-8-/-\-----|
R
---------------------------------------------------------------|
---------------------------------------------------------------|
---------------------------------------------------------------|
---------------------------------------------------------------|
-8------------------------------8-----5----------7-------------|
-8------------------------------8-----5----------7-----/-\-----|


1:12
L
-------------------------------------------|
-------------------------------------------|
----GT1--15-14-12-14-12-10-12-14-10--------|
----GT2--8-7----7------8-10-7--------------|
-0-----------10---10-8---------------------|
-0-----------------------------------------|
R
-------------------------------------------|
-------------------------------------------|
-------------------------------------------|
-------0-----------------------------------|
-0-----0------2--3--8---------------8------|
-0-----0------2--3--8---------------8|-----|


1:21
L
-------------------------------------------|
-------------------------------------------|
----GT1--15-14-12-14-12-10-12-14-15--------|
----GT2--8-7----7---------7-8--------------|
-0-----------10---10-8-10---------------5--|
-0-----------------------------------------|
R
---------------------------------------------------------------|
---------------------------------------------------------------|
---------------------------------------------------------------|
-------0-------------------------------------------------------|
-0-----0------2--3--8---------------5--------------------------|
-0-----0------2--3--8---------------5|---------/-\-------------|

1:29
B
---------5-----------|
---------6-----------|
---------7-----------|
---------0-----------|
--0------0----PS-----|
--0------0------\----|

1:37
L
---------------------------------------------------------------|
---------------------------------------------------------------|
---------------------------------------------------------------|
---------------------------------------------------------------|
-**-*-*-*-**-*-*-**-*-*-*-*-*-*-*-*-*-**-*-*-*-*-**-*-*-3-2-1--|
-00-4-3-0-11-0-0-44-3-0-3-2-0-1-0-4-3-11-0-3-1-0-44-3-0-3-2-1--|
R
---------------------------------------------------------------|
---------------------------------------------------------------|
---------------------------------------------------------------|
---------------------------------------------------------------|
---------------------------------*-*-*-**-*-*-*-0-1------------|
---------------------------------0-4-3-11-0-3-1-0-1|-----------|

1:45
B
----------------------------------------------------------------------------|
----------------------------------------------------------------------------|
----------------------------------------------------------------------------|
----------------------------------------------------------------------------|
-0-4-3-0-1-0-3-1-0-4-3-0-3-2-1-2-0-4-3-0-1-0-3-1-0-4-3-0--^----^----^---^---|
-0-4-3-0-1-0-3-1-0-4-3-0-3-2-1-2-0-4-3-0-1-0-3-1-0-4-3-0-7-10-7-10-6-9-6-9--|



1:53------------------------------------------------------------------------|
----------------------------------------------------------------------------|
----------------------------------------------------------------------------|
----------------------------------------------------------------------------|
-0-4-3-0-1-0-3-1-0-4-3-0-3-2-1-2-0-4-3-0-1-0-3-1-0-4-3-0--^----^----^---^---|
-0-4-3-0-1-0-3-1-0-4-3-0-3-2-1-2-0-4-3-0-1-0-3-1-0-4-3-0-7-10-7-10-6-9-6-9--|

2:00
--------------------------------|
--------------------------------|
--------------------------------|
-------------------PH-----------|
-0------0------*-*-3~~----------|
-0------0------0-0--------------|



SOLO
2:04

                               ) (
--13-11-10-13-11-10-13-11-10-13----10--------------------------------------------------------|
--------------------------------------13-10-11--13-11-10--11-10-11-13-11-10-11-10-11-13-11-10|
---------------------------------------------------------------------------------------------|
---------------------------------------------------------------------------------------------|
---------------------------------------------------------------------------------------------|
---------------------------------------------------------------------------------------------|

2:09

---)(------------)(-----------------------------------------------///--///-///---------|
-13---10-------11---------------------------------///-///-///-///--10--11--10--///-----|
---------12-10-12---10-----------9-10-9--------///-9--10--11---13--------------12------|
-----------------------12-10-12---------11~~\-/12--------------------------------------|
---------------------------------------------------------------------------------------|
---------------------------------------------------------------------------------------|


2:15                                                                 __
       __       __                                                  /  \     __      __
------/  \-----/  \-----^----------------------///-//////-///-///-13-11-10--/  \----/  \--------|
/15-13-15-13-11-13-11-11-10--------11-13-11-10--10--11-13-11-10-----------13-11-10-8-10-8---8---|
-----------------------------10-14--------------------------------------------------------10--10|
------------------------------------------------------------------------------------------------|
------------------------------------------------------------------------------------------------|
------------------------------------------------------------------------------------------------|


2:20
---------------------------------------------------------------------------------------|
--------------------------------)------------------------------------------------------|
-------10-9-----------------)-17--17-17-17-17-17-15---------)(-------------------------|
-/12--------12-11--11/12--17--19--19-19-18-18-18-17-17-17-17---15--12-12--14-12-10-10~-|
---------------------------------------------------------------------------------------|
---------------------------------------------------------------------------------------|

2:27
------------------------------------------------|
------------------------------------------------|
------------------------------------------------|
-\/12-\/14-\/15-\/17-\/19-17-15-14-17-15-14-----|
------------------------------------------------|
------------------------------------------------|


2:32
-----------------------------------------------------------------------|
------_------_------_------_------_------_------_------_---------------|
-----/ \----/ \----/ \----/ \----/ \----/ \----/ \----/ \-----WHAMMY---|
-7-10-9-7-10-9-7-10-9-7-10-9-7-10-9-7-10-9-7-10-9-7-10-9-7-----H-PULLS-|
-----------------------------------------------------------------------|
-----------------------------------------------------------------------|

RYTHM
-------------------------------------------------------------------|
-------------------------------------------------------------------|
-------------------------------------------------------------------|
-------------------------------------------------------------------|
0-0-0-0-0-0-0-0-0-0-0-0-0-0-0-0-8-8-8-8-8-8-8-8-8-8-8-8-8-8-8-8----|
0-0-0-0-0-0-0-0-0-0-0-0-0-0-0-0-8-8-8-8-8-8-8-8-8-8-8-8-8-8-8-8----|

---------------------------------------------------------------------------------|
---------------------------------------------------------------------------------|
---------------------------------------------------------------------------------|
---------------------------------------------------------------------------------|
-10-10-10-10-10-10-10-10-10-10-10-10-10-10-10-10-7-7-7-7-7-7-7-7-7-7-7-7-7-7-7-7-|
-10-10-10-10-10-10-10-10-10-10-10-10-10-10-10-10-7-7-7-7-7-7-7-7-7-7-7-7-7-7-7-7-|

RYTHM DURING SOLO REPEATS
-----------------------------------------------------------------|
-----------------------------------------------------------------|
-----------------------------------------------------------------|
-----------------------------------------------------------------|
-***-***-***-***-***-***-***-***-***-***-***-***-***-***-***-***-|
-000-000-000-000-000-000-000-000-888-888-888-888-888-888-888-888-|

---------------------------------------------------------------|
---------------------------------------------------------------|
---------------------------------------------------------------|
---------------------------------------------------------------|
--*-*-*--*-*-*--*-*-*--*-*-*--*-*-*--*-*-*--*-*-*--*-*-*-7-----|
-101010-101010-101010-101010-101010-101010-101010-101010-7|----|


2:40

MELODY W/SAME RYTHM AS SOLO
----------------------------------------------------------------------------|
----------------------------------------------------------------------------|
-7--9-10--12-10-9-7--7--9-10--12-10-9-7--7--9-10--12-10-9-7-7-10--9--6-66-6-|
-X--X--X---X-X--X-X--X--X--X---X-X--X-X--X--X--X---X-X--X-X-X--X--X--X-XX-X-|
-5--7--8--10-8--7-5--5--7--8--10-8--7-5--5--7--8--10-8--7-5-5--8--7--4-44-4-|
----------------------------------------------------------------------------|

2:50
-------------------------------------------------------------------------------|
-------------------------------------------------------------------------------|
-7--9-10--12-10-9-7--7--9-10--12-10-9-7--7--9-10--12-10-9-7-15-15-151212121212-|
-X--X--X---X-X--X-X--X--X--X---X-X--X-X--X--X--X---X-X--X-X-X--X---X--X-X-X-X--|
-5--7--8--10-8--7-5--5--7--8--10-8--7-5--5--7--8--10-8--7-5-13-13-131010101010-|
-------------------------------------------------------------------------------|

2:58

MELODY NOW MORE THOUROUGHLY PICKED
----------------------------------------------------------------------------|
----------------------------------------------------------------------------|
-7--9-10--12-10-9-7--7--9-10--12-10-9-7--7--9-10--12-10-9-7-7-10--9--6-66-6-|
-X--X--X---X-X--X-X--X--X--X---X-X--X-X--X--X--X---X-X--X-X-X--X--X--X-XX-X-|
-5--7--8--10-8--7-5--5--7--8--10-8--7-5--5--7--8--10-8--7-5-5--8--7--4-44-4-|
----------------------------------------------------------------------------|

3:07
-------------------------------------------------------------------------------|
-------------------------------------------------------------------------------|
-7--9-10--12-10-9-7--7--9-10--12-10-9-7--7--9-10--12-10-9-7-15-15-151212121212-|
-X--X--X---X-X--X-X--X--X--X---X-X--X-X--X--X--X---X-X--X-X-X--X---X--X-X-X-X--|
-5--7--8--10-8--7-5--5--7--8--10-8--7-5--5--7--8--10-8--7-5-13-13-131010101010-|
-------------------------------------------------------------------------------|



3:17
MELODY
-----------------------------------------------------------------------|
-----------------------------------------------------------------------|
-----------------------------------------------------------------------|
---------5-7-5-------------5-7-5-------------7-8-7-------------7-8-7---|
-5-7-7-8-------8-7-5-7-7-8-------8-7-5-7-7-8-------8-7-5-7-7-8---------|
-----------------------------------------------------------------------|
R
---------------------------------------------------------------|
---------------------------------------------------------------|
---------------------------------------------------------------|
---------------------------------------------------------------|
-0-***-*-0-*-*-0-***-*-0-*-*-8-***-*-8-*-*-8-***-*-8-*-*-------|
-0-000-0-0-0-0-0-000-0-0-0-0-8-888-8-8-8-8-8-888-8-8-8-8-------|



3:24
L
--------------------------------------------------------------------|
--------------------------------------------------------------------|
--------------------------------------------------------------------|
---------8-10-8-------------8-10-8---------5-7-8-7-----7------------|
-5-7-7-8--------8-7-5-7-7-8--------5-7-7-8---------8-7----8-7--5--4-|
--------------------------------------------------------------------|
R
--------------------------------------------------------------------------|
--------------------------------------------------------------------------|
--------------------------------------------------------------------------|
--------------------------------------------------------------------------|
-10--*-*-*--*-10--*--*-10--*-*-*--*-10--*--*-7-***-*-7-*-*-7-***-*-7-*-*--|
-10-101010-10-10-10-10-10-101010-10-10-10-10-7-777-7-7-7-7-7-777-7-7-7-7--|


3:30
MELODY
-----------------------------------------------------------------------|
-----------------------------------------------------------------------|
------------)(----------------)(----------------)(----------------)(---|
---------5-7---------------5-7---------------7-8---------------7-8-----|
-5-7-7-8-------8-7-5-7-7-8-------8-7-5-7-7-8-------8-7-5-7-7-8---------|
-----------------------------------------------------------------------|
R
---------------------------------------------------------------|
---------------------------------------------------------------|
---------------------------------------------------------------|
---------------------------------------------------------------|
-0-***-*-0-*-*-0-***-*-0-*-*-8-***-*-8-*-*-8-***-*-8-*-*-------|
-0-000-0-0-0-0-0-000-0-0-0-0-8-888-8-8-8-8-8-888-8-8-8-8-------|

3:36
M
--------------------------------------------------------------------|
--------------------------------------------------------------------|
-------------)(-----------------)(----------------------------------|
---------8-10---------------8-10-----------5-7-8-7-----7------------|
-5-7-7-8--------8-7-5-7-7-8--------5-7-7-8---------8-7----8-7--5--4-|
--------------------------------------------------------------------|
R
--------------------------------------------------------------------------|
--------------------------------------------------------------------------|
--------------------------------------------------------------------------|
--------------------------------------------------------------------------|
-10--*-*-*--*-10--*--*-10--*-*-*--*-10--*--*-7-***-*-7-*-*-7-***-*-7-*-*--|
-10-101010-10-10-10-10-10-101010-10-10-10-10-7-777-7-7-7-7-7-777-7-7-7-7--|


3:42
MELODY
-------------------------------------------------------------------------------------|
-------------------------------------------------------------------------------------|
-7--9-10--1210-9-7--9-10--12--14-12-121010-9-9-7-7--9-10--1210-9-7-710-9-7-6----P----|
-X--X--X---X-X-X-X--X--X---X---X--X--X-X-X-X-X-X-X--X--X---X-X-X-X-X-X-X-X-X----H----|
-5--7--8--10\8-7-5--7--8--10--12\10-10\8-8\7-7\5-5--7--8--10\8-7-5-5-8-7-5-4-**-3~~--|
-----------------------------------------------------------------------------00------|
R
-----------------------------------------------------------------------------------|
-----------------------------------------------------------------------------------|
-----------------------------------------------------------------------------------|
--------------------------------------------------------------------------------P--|
-0----------8----------10---------7--------0----------8----------10-------7--**-H~~|
-0----------8----------10---------7--------0----------8----------10-------7--00-3--|


3:54
MELODY
-----------------------____------------------------------------------------------------|
----------------------/    \ ----------------------------------------------------------|
-7--9-10--1210-9-7-9-910-12-10-14-14-12-12-15-15-14--7--9-10--1210-9-7--15--14---------|
-X--X--X---X-X-X-X-X-X-X-X--X--X--X--X---X--X--X--X--X--X--X---X-X-X-X--X----X---------|
-5--7--8--10\8-7-5/7-7/8/10\8-/12-12\10-10/13-13\12--5--7--8--10\8-7-5/-13--12--PS-----|
-----------------------------------------------------------------------------------\---|
R
-----------------------------------------------------------------------------------|
-----------------------------------------------------------------------------------|
-----------------------------------------------------------------------------------|
-----------------------------------------------------------------------------------|
-0----------8----------10---------7--------0----------8----------10-------7--0-----|
-0----------8----------10---------7--------0----------8----------10-------7--0-----|


Добавлено: 28.11.2013
Другие материалы по этой песне:

Страница создана 18.04.2012
http://primanota.ru/the-autumn-offering/beginnings-end-chords.htm
Привет, Гость.
Предлагаем пройти революционный курс по гитаре.
Подарок от PrimaNota.Ru, забирай!