PrimaNota.ru - самый крупный в мире бесплатный архив песенных текстов, аккордов, табулатур и нот


The Automatic - Keep Your Eyes Peeled - текст песни, таба, видео

Регистрация Запомнить меня
Войти через:  Facebook Google Twitter Vk Yandex Mail.ru

The Automatic - Keep Your Eyes Peeled - текст песни, таба, видео

Печатать
Просмотров: 118
Авторы музыки: Alex Pennie, Iwan Griffiths, James Frost, Robin Hawkins
Авторы текста: Alex Pennie, Iwan Griffiths, James Frost, Robin Hawkins
The Automatic
Keep Your Eyes Peeled

By Jack Haynes :p

This is an awesome tune, from an awesome band, probably my favourite tune from them!

Intro:		     

|-------------------|
|-------------------|
|-------------------|
|-666666666666-19s6-|
|-666666666666-19s6-|
|-444444444444-17s4-|
  ^^^^^^^^^^^^  ^
Play for 15     ^
Counts,(16th count) – the slide is strummed all the way down, dunno what the technical term is!

Part 1: ‘This adventure is a 1 way street, so please keep your eyes on the radar screen'

|--------------------------------------|
|--------------------------------------|
|--------------------------------------|
|-6-6----6-6--6-6--9-9----11-11--13-13-|
|-6-6----6-6--6-6--9-9----11-11--13-13-|
|-4-4----4-4--4-4--7-7----9--9---11-11-|   x4

Part 2: (the best bit :D) ‘No parking in lanes'

|-----------------------------------------|
|-----------------------------------------|
|-1313131313131313^1111111111111111^1212^-|
|-1313131313131313^1111111111111111^1212^-|
|-1111111111111111^9-9-9-9-9-9-9-9-^1010^-|
|-----------------------------------------|   x2
 ^^^^^^^			  ^^^^^^^
	 4 counts		  4 counts


Part 3: ‘Keep the exits clear, I've got to get away, I've got a job to do, there's no room for mistakes'

|--------------------------------------|
|--------------------------------------|
|--------------------------------------|
|------6------9------9------13---------|
|------6------9------9------13---------|
|------4------7------7------11---------| x2

Part 1 Riff x1 (KEEP YOUR EYES PEELED!)
Part 1
(Part 3) x2

*then that bit I assume pennie does while frost goes:-*

|------------------|
|--(a biiig slide!)|
|------------------|
|-6^^^^^19---------|
|-6^^^^^19---------|
|-4^^^^^17---------|

Part 1 Altered:
|-------------------------------------------|
|-------------------------------------------|
|-------------------------------------------|
|-6666666666^8^9999999999^111111^131313-----|
|-6666666666^8^9999999999^111111^131313-----|
|-4444444444^6^7777777777^9-9-9-^111111-----| x4
   ^ ^ ^ ^ ^ ^   ^            ^
   1 2 3 4 5 6   7 			8
Bars  ^

Part 3 Altered:				   only end on V
|--------------------------------------------V|
|--------------------------------------------V|
|--------------------------------------------V|
|666666666^9999999999-999999999^131313131313-6|
|666666666^9999999999-999999999^131313131313-6|
|444444444^7777777777-777777777^111111111111-4|x4
Добавлено: 13.05.2012
Другие материалы по этой песне:

Страница создана 22.03.2012
http://primanota.ru/the-automatic/keep-your-eyes-peeled-chords.htm
Привет, Гость.
Предлагаем пройти революционный курс по гитаре.
Подарок от PrimaNota.Ru, забирай!