PrimaNota.ru - самый крупный в мире бесплатный архив песенных текстов, аккордов, табулатур и нот


The Audition - Ether - таба, видео

Регистрация Запомнить меня
Войти через:  Facebook Google Twitter Vk Yandex Mail.ru

The Audition - Ether - таба, видео

Печатать
Просмотров: 119
Ether
The Audition
Champion (2008)
Track 6 of 10
Tuning: Standard (EADGBe)

First tab for this song, and this is next to perfect :D.

Legend:
	~ - let it ring
	/ - slide
	h – hammer on
	p – pull off

Intro(0:00-0:12)
E|-----------------|
B|-----------------|
G|-4~--/6~---------|  x2
D|-4~--/6~--4~-----|
A|-2~--/4~--4~-----|
E|----------2~-----|


Intro (Riff)(0:12-0:23)
E|----------------------             E|--------------------|
B|----------------------             B|--------------------|
G|-44—2h4p2------2h4p2--   x3 then…  G|--------------------|
D|-44------4--44------4-             D|-4-4-4-4-4-4-4-4----|
A|-22---------44--------             A|-4-4-4-4-4-4-4-4----|
E|------------22--------             E|-2-2-2-2-2-2-2-2----|


Verse(0:23-0:47)
E|----------------------|
B|----------------------|
G|-4~--6~--4-----4------|  x4
D|-2~--4~--24-44-44-44~-|
A|-2~--4~--24-44-24-44~-|
E|----------2-22--2-22~-|

Pre-Chorus(0:47-0:59)
E|---------------------------------|
B|----3--------------5-------------|
G|---4-4------------6-6------------|  x2
D|--4---------4----6----------6----|
A|-2-------2------4--------4-------|
E|-------22-22-----------44-44-----|
Chorus(0:59-1:22)
E|-------------------------------------|
B|-------------------------------------|
G|-4444-666—4/7-4/2---4444-666-2h4-7-4-|
D|-4444-444--------2--4444-666---------|
A|-2222-444-----------2222-444---------|
E|-------------------------------------|

E|--------------------------------|
B|--------------------------------|
G|--------------------------------| x2
D|-4-444-444-444-444-444-444-444--|
A|-4-444-444-444-444-444-444-444--|
E|-2-222-222-222-222-222-222-222--|

Intro (Riff)(1:23-1:34)
Verse (1:34-1:58)
Pre-Chorus (1:58-2:10)
Chorus (2:10-2:34)

Bridge(2:34-2:57)
E|---------------------------|
B|---------------------------|
G|-4--------6----------------| x2
D|-4-(x8)---6-(x8)---4-------|
A|-2--------4--------4-(x16)-|
E|-------------------2-------|

Chorus(2:58-3:42)

End On(3:43-3:50)
E|-3--
B|-3--
G|-4--
D|-4--
A|-2--
E|----
Добавлено: 16.06.2012
Другие материалы по этой песне:
  • Аккорды и текст

Страница создана 16.06.2012
http://primanota.ru/the-audition/ether-chords.htm
Привет, Гость.
Предлагаем пройти революционный курс по гитаре.
Подарок от PrimaNota.Ru, забирай!