PrimaNota.ru - самый крупный в мире бесплатный архив песенных текстов, аккордов, табулатур и нот


The Audition - Edinboro - таба, видео

Регистрация Запомнить меня
Войти через:  Facebook Google Twitter Vk Yandex Mail.ru

The Audition - Edinboro - таба, видео

Печатать
Просмотров: 116
Уроки эстрадного вокала в Санкт-Петербурге
Artist: The Audition
Song: Edinboro
Album: Champion
Tabbed By: Shizawn
Tuning: Dropped Db (eb bb gb db ab Db)

I learned this song personally from Seth (guitarist from The Audition) so this is %100 
guarantee! Enjoy and check out my other tabs to The Audition songs on here! Thanks!

Intro
|---------------------------------------------------------|
|---------------------------------------------------------|
|-----------7-7-------------------------------------------|
|---4---4---7-7---9-9-9-9-9-9-9-9---x4------------11~-----|
|---4---4---5-5---9-9-9-9-9-9-9-9---------11-14-----------|
|---4---4---------9-9-9-9-9-9-9-9-------------------------|

Verse 1 (Comes in second measure..."This sort of thing...")
|--------------------------------------------|
|--------------------------------------------|
|--------------------------------------------|
|-----------------------------------x2-------|
|------5~------------------------------------|
|--4~----9~-7-9-7----------------------------|

Pre-Chorus
|----------------------------------------------------|------0~-----------|
|--7-7-x-7---9-9-x-9--10-10-x-10---9-9-x-9-----------|------0~-----------|
|--6-6-x-6---8-8-x-8--11-11-x-11---8-8-x-8-----------|------0~-----------|
|--7-7-x-7---9-9-x-9--11-11-x-11---9-9-x-9---x2------|-------------------|
|--5-5-x-5---7-7-x-7--9--9--x-9----7-7-x-7-----------|--0----------------|
|----------------------------------------------------|--0----------------|
                                                        pm
Chorus 1
|------------------------------------------------------------------------|
|------------------------------------------------------------------------|
|-----------------9-9-9-9-9-9-9/7----------------------------------------|
|-5-5-5-5-5-5-5-5-9-9-9-9-9-9-9/7-9-9-9-9-9-9-9-9-9-9-9-9-9-9-9-9----x2--|
|-5-5-5-5-5-5-5-5-7-7-7-7-7-7-7/5-9-9-9-9-9-9-9-9-9-9-9-9-9-9-9-9--------|
|-5-5-5-5-5-5-5-5-----------------9-9-9-9-9-9-9-9-9-9-9-9-9-9-9-9--------|

Interlude(Breakdown)
|-----------------------------------------------|
|-----------------------------------------------|
|---------------9-x-9---------------------------|
|--5-5-5-5-5----9-x-9--9-x-x-9-x-x-9------x2----|
|--5-5-5-5-5----7-x-7--9-x-x-9-x-x-9------------|
|--5-5-5-5-5-----------9-x-x-9-x-x-9------------|

Verse 2                            *3rd time only*
|---------------------------------|--------------------------|
|---------------------------------|--------------------------|
|---------------------------------|--------------------------|
|------------------------------x2-|--------------------------|
|------5~-------------------------|------9~------------------|
|--4~----9~-7-9-7-----------------|-----------9~-7-9-7-------|

Pre-Chorus
|------------------------------------------------------|------0~-----------|
|--7-7-x-7---9-9-x-9--10-10-x-10---9-9-x-9-------9~----|------0~-----------|
|--6-6-x-6---8-8-x-8--11-11-x-11---8-8-x-8---------8~--|------0~-----------|
|--7-7-x-7---9-9-x-9--11-11-x-11---9-9-x-9---x2------9~|-------------------|
|--5-5-x-5---7-7-x-7--9--9--x-9----7-7-x-7-------------|--0----------------|
|------------------------------------------------------|--0----------------|
                                                          pm
Chorus 2
|------------------------------------------------------------------------|
|------------------------------------------------------------------------|
|-----------------9-9-9-9-9-9-9/7----------------------------------------|
|-5-5-5-5-5-5-5-5-9-9-9-9-9-9-9/7-9-9-9-9-9-9-9-9-9-9-9-9-9-9-9-9----x4--|
|-5-5-5-5-5-5-5-5-7-7-7-7-7-7-7/5-9-9-9-9-9-9-9-9-9-9-9-9-9-9-9-9--------|
|-5-5-5-5-5-5-5-5-----------------9-9-9-9-9-9-9-9-9-9-9-9-9-9-9-9--------|

Post-Chorus Breakdown/Outro
|-------------------------------------|
|-------------------------------------|
|-------------------------------------|
|---9~-x-xx-xx9~-9-7-9~-------x8------|
|---9~-x-xx-xx9~-9-7-9~---------------|
|---9~-x-xx-xx9~-9-7-9~---------------|

Pre Chorus

Chorus 2

Outro
Добавлено: 26.06.2012
Другие материалы по этой песне:
  • Аккорды и текст

Страница создана 26.06.2012
http://primanota.ru/the-audition/edinboro-chords.htm
Привет, Гость.
Предлагаем пройти революционный курс по гитаре.
Подарок от PrimaNota.Ru, забирай!