PrimaNota.ru - самый крупный в мире бесплатный архив песенных текстов, аккордов, табулатур и нот


The Audition - Dance Halls Turn To Ghost Towns - текст песни, таба, бас-таба, видео

Регистрация Запомнить меня
Войти через:  Facebook Google Twitter Vk Yandex Mail.ru

The Audition - Dance Halls Turn To Ghost Towns - текст песни, таба, бас-таба, видео

Печатать
Просмотров: 121
Song: Dance Halls Turn to Ghost Towns
Artist: The Audition
Album: Controversy Loves Company

Tabbed by: garyhann
Email: garyhann@live.co.uk

Tuning: Drop D


  Intro
e|------------------------xx--|
B|------------------------xx--|
G|------------------------xx--|
D|------------------------xx--|
A|------1h4-1------1h4-1--xx--|
D|--3h5--------3h5--------xx--|


  Pre-Verse
e|-------------------|
B|-------------------|
G|-------------------|
D|--88-44-88-44-8-4--|
A|--88-44-88-44-8-4--|
D|--88-44-88-44-8-4--|


  Verse 1 - Guitar 1
e|---------------------------------------------|
B|---------------------------------------------|
G|---------------------------------------------|
D|-----8-8-8-8------4-4----6-6--------0-0-1-1--|
A|---------------4-4-----------6-6-------------|
D|--8-8-------4-4-------6-6--------1-1---------|
    . .. . . .. .. .. . . .. . . . . . 

  Verse 2 - Guitar 1
e|-----------------------------------------------|
B|-----------------------------------------------|
G|-----10---10-----------------------------------|
D|--------8----8----4-4-6-6---8-8-6-6---0-0-1-1--|
A|-----------------------------------------------|
D|--8-8----------4-4-------6-6-------1-1---------|
    . .          . .       . .       . .

  Verse 3 - Guitar 1
e|-----------------------------------------|
B|-----------------------------------------|
G|-----10---10-----------------------------|
D|--------8----8----4-4-6-6---8-8-6-6-1-1--|
A|------------------------------------1-1--|
D|--8-8----------4-4-------6-6--------1-1--|
    . .          . .       . .        . .

  Verse 2 & 3 - Guitar 2
e|--------------------------------------|
B|--------------------------------------|
G|--------------------------------------|
D|--8-8-------4-4-------6-6--------1-1--|
A|--8-8-------4-4-------6-6--------1-1--|
D|--8-8-------4-4-------6-6--------1-1--|
    . .       . .       . .        . .


  Chorus - Guitar 1
e|--------------------------------------------------------------------------|
B|--------------------------------------------------------------------------|
G|--------------------------------------------------------------------------|
D|-8-8-8-8-8-8-8-8-33-11-33-11-33-11-33-11-4-4-4-4-4-4-4-4-1-1-1-1-1-1-1-1--|
A|-8-8-8-8-8-8-8-8-33-11-33-11-33-11-33-11-4-4-4-4-4-4-4-4-1-1-1-1-1-1-1-1--|
D|-8-8-8-8-8-8-8-8-33-11-33-11-33-11-33-11-4-4-4-4-4-4-4-4-1-1-1-1-1-1-1-1--|


  Bridge 1 - Guitar 1
e|--xxxxxxxxxxxxxxxxxxxxxxxxxxxxxxxx--|
B|--xxxxxxxxxxxxxxxxxxxxxxxxxxxxxxxx--|
G|--xxxx8866xxxx8866xxxx8866xxxx8866--|
D|--xxxxxxxxxxxxxxxxxxxxxxxxxxxxxxxx--|
A|--xxxxxxxxxxxxxxxxxxxxxxxxxxxxxxxx--|
D|--xxxxxxxxxxxxxxxxxxxxxxxxxxxxxxxx--|

  Bridge 1 - Guitar 2
e|--------------------------------------|
B|--------------------------------------|
G|--------------------------------------|
D|--44--44--44--44-44-88--88--88-88-88--|
A|--44--44--44--44-44-88--88--88-88-88--|
D|--44--44--44--44-44-88--88--88-88-88--|

  Bridge 2 - Guitar 1
e|--111111111111-111111111111-111111111111-1111-11111111--|
B|--333333333333-333333333333-222222222222-2222-11111111--|
G|--444444444444-444444444444-333333333333-1111-11111111--|
D|--444444444444-444444444444-444444444444-1111-11111111--|
A|--111111111111-xxxxxxxxxxxx-111111111111-1111-11111111--|
D|---------------111111111111-----------------------------|


  Final Chorus - Guitar 2
e|----------------------------------------------------------|
B|----------------------------------------------------------|
G|--8\6-8\6-3--8\6-8\6-3-888888-101010101010-888888-666666--|
D|--x\x-x\x-x--x\x-x\x-x-xxxxxx-x-x-x-x-x-x--xxxxxx-xxxxxx--|
A|--6\4-6\4-1--6\4-6\4-1-666666-8-8-8-8-8-8--666666-444444--|
D|----------------------------------------------------------|


  Outro - Guitar 1
e|--------------------------------------------------------------------|
B|--------------------------------------------------------------------|
G|--------------------------------------------------------------------|
D|--8-8-8-8-8-8-8-8-33-11-33-11-33-11-33-11-4-4-4-4-4-4-4-4-1-1-1-1---|
A|--8-8-8-8-8-8-8-8-33-11-33-11-33-11-33-11-4-4-4-4-4-4-4-4-1-1-1-1---|
D|--8-8-8-8-8-8-8-8-33-11-33-11-33-11-33-11-4-4-4-4-4-4-4-4-1-1-1-1---|

  Outro - Guitar 2
e|-------------------------------------------------|
B|-------------------------------------------------|
G|--8\6-8\6-3--8\6-8\6-3-888888-101010101010-3333--|
D|--x\x-x\x-x--x\x-x\x-x-xxxxxx-x-x-x-x-x-x--xxxx--|
A|--6\4-6\4-1--6\4-6\4-1-666666-8-8-8-8-8-8--1111--|
D|-------------------------------------------------|


Song Formation

[The whole song is played in distortion apart from ‘Bridge Pt II', which is clean]

Intro - Guitar 1 - x1
Pre-Verse - Guitar 1 - x4
Verse 1 - Guitar 1 - x1
Verse 2 - Guitar 1 - x2 & Verse Pt 2 & 3 - Guitar 2 - x2
Verse 3 - Guitar 1 - x1 & Verse Pt 2 & 3 - Guitar 2 - x1
Chorus - Guitar 1 - x2
Pre-Verse - Guitar 1 - x5
Verse 1 - Guitar 1 - x1
Verse 2 - Guitar 1 - x2 & Verse Pt 2 & 3 - Guitar 2 - x2
Verse 3 - Guitar 1 - x1 & Verse Pt 2 & 3 - Guitar 2 - x1
Chorus - Guitar 1 - x2
Bridge 1 - Guitar 1 - x4 & Bridge 1 - Guitar 2 - x4
Bridge 2 - Guitar 1 - x3
Chorus - Guitar 1 - x2
Chorus - Guitar 1 - x1 & Final Chorus - Guitar 2 - x1
Outro - Guitar 1 - x1 & Outro - Guitar 2 – x1
Добавлено: 19.04.2012
Другие материалы по этой песне:
  • Аккорды и текст

Страница создана 19.04.2012
http://primanota.ru/the-audition/dance-halls-turn-to-ghost-towns-chords.htm
Привет, Гость.
Предлагаем пройти революционный курс по гитаре.
Подарок от PrimaNota.Ru, забирай!