PrimaNota.ru - самый крупный в мире бесплатный архив песенных текстов, аккордов, табулатур и нот


The Asteroids Galaxy Tour - Inner City Blues - бас-таба, видео

Регистрация Запомнить меня
Войти через:  Facebook Google Twitter Vk Yandex Mail.ru

The Asteroids Galaxy Tour - Inner City Blues - бас-таба, видео

Печатать
Просмотров: 91
The Asteroids Galaxy Tour
Inner City Blues - Bass tabs


E|---------------------------------------------------|
A|-7-5-7/8----7-5-7/8-0---7-5-7/8-----7-5-7/8-0------|
D|---------7----------------------9-7----------------|
G|---------------------------------------------------|


E|---------------------------------------------------|
A|-7-5-7/8----7-5-7/8-0---7-5-7/8-----7-5-7/8-0------|
D|---------7----------------------9-7----------------|
G|---------------------------------------------------|


E|---------------------------------------------------|
A|-7-5-7/8----7-5-7/8-0---7-5-7/8-----7-5-7/8-0------|
D|---------7----------------------9-7----------------|
G|---------------------------------------------------|
Добавлено: 08.08.2013
Другие материалы по этой песне:
  • Аккорды и текст

Страница создана 08.08.2013
http://primanota.ru/the-asteroids-galaxy-tour/inner-city-blues-chords.htm
Привет, Гость.
Предлагаем пройти революционный курс по гитаре.
Подарок от PrimaNota.Ru, забирай!