PrimaNota.ru - самый крупный в мире бесплатный архив песенных текстов, аккордов, табулатур и нот


The Apples In Stereo - Tin Pan Alley - таба, видео

Регистрация Запомнить меня
Войти через:  Facebook Google Twitter Vk Yandex Mail.ru

The Apples In Stereo - Tin Pan Alley - таба, видео

Печатать
Просмотров: 101
-------------------------------------------------------------------------------
			     Tin Pan Alley – Apples in Stereo
-------------------------------------------------------------------------------
Tabbed by Tab Tabberson


Tuning: Standard

Intro lead
e|--------------------------------------------------------------------|
B|----8---------------------5--------------------------8--------------|
G|--------7---4-5-6-7-------------5—-5/7--4-5-7--------------7--------|
D|-/5---5---5-----------/5-----5-----5/7-----------/5-----5-----5-----|
A|--------------------------------------------------------------------|
E|--------------------------------------------------------------------|

e|---------------8------8----------10------10-------------------------|
B|-----------------6------6-----------8-------8-----------------------|
G|--4-5-6-7---5------5------5---/7------7-------7---------------------|
D|--------------------------------------------------------------------|
A|--------------------------------------------------------------------|
E|--------------------------------------------------------------------|
  
Chord pattern: (G G C D) 6x
	       (C C G G A A C G) 2x
	 	  

bridge
e|--------------------------------------------------------------------|
B|--------------------------------------------------------------------|
G|--------------------------------------------------------------------|
D|---10--10--5----10--10--5----10--10--5---7--------------------------|
A|---10--10--5----10--10--5----10--10--5---7--------------------------|
E|---8---8---3----8---8---3----8---8---3---5--------------------------|

Solo 2x
e|------10----------------------------8-------------------------------|
B|-------------10----8-10-11-12-------------8—-5/7--8-9-10------------|
G|---7------7-----7----------------5-----5-----5/7--------------------|
D|--------------------------------------------------------------------|
A|--------------------------------------------------------------------|
E|--------------------------------------------------------------------|

e|-----7--------------------------8----------5-5-5h7-5----------------|
B|----------8--------------------------8------------------------------|
G|--7----7-----7h9-10-11-12----5----5-----7---------------------------|
D|--------------------------------------------------------------------|
A|--------------------------------------------------------------------|
E|--------------------------------------------------------------------|

link http://www.applesinstereo.com/
lets get some more apples tabs up here
Добавлено: 13.03.2012
Другие материалы по этой песне:
  • Аккорды и текст

Страница создана 13.03.2012
http://primanota.ru/the-apples-in-stereo/tin-pan-alley-chords.htm
Привет, Гость.
Предлагаем пройти революционный курс по гитаре.
Подарок от PrimaNota.Ru, забирай!