PrimaNota.ru - самый крупный в мире бесплатный архив песенных текстов, аккордов, табулатур и нот


The Antlers - Corsicana - таба, видео

Регистрация Запомнить меня
Войти через:  Facebook Google Twitter Vk Yandex Mail.ru

The Antlers - Corsicana - таба, видео

Печатать
Просмотров: 228
Main riff played throughout almost the entire song:

e-------------------------|
b---10-------10---10------|
G---------0-----0------0--|
D------10----10---10------|
A---8---------------------|
E-------------------------|

e-------------------------|
b---8--------8-----8------|
G---------0-----0------0--|
D------10----10----10-----|
A---0---------------------|
E-------------------------|

e--------------------------|
b---8--------8-----8-------|
G---------0-----0------0---|
D------10----10----7-------|
A--------------------------|
E---8----------------------|

e-------------------------|
b---5--------5-----5------|
G---------0-----0------0--|
D------7-----7-----7------|
A---0---------------------|
E-------------------------|

Tabbed by: Rainboweater

https://soundcloud.com/rainboweater/rainboweater-cosmonaut

Enjoy!
Добавлено: 18.10.2013
Другие материалы по этой песне:
  • Аккорды и текст

Страница создана 18.10.2013
http://primanota.ru/the-antlers/corsicana-chords.htm
Привет, Гость.
Предлагаем пройти революционный курс по гитаре.
Подарок от PrimaNota.Ru, забирай!