PrimaNota.ru - самый крупный в мире бесплатный архив песенных текстов, аккордов, табулатур и нот


The Answer - Waste Your Tears - таба, видео

Регистрация Запомнить меня
Войти через:  Facebook Google Twitter Vk Yandex Mail.ru

The Answer - Waste Your Tears - таба, видео

Печатать
Просмотров: 68
The Answer - "Waste Your Tears"
From "Revival"

Tuning: Drop D (D A D G B E)

=====
Intro - Slide
=====

E-----------------------------------|-----------------------------------|
B--/7-------------------------------|-----------------------------------|
G--/7-------------------------------|-----------------------------------|
D--/7-------------------------------|----------/7--5--0-----3----3/5----|
A-----------------------------------|-----------------------------------|
D-----------------------------------|-----------------------------------|


E-----------------------------------|-----------------------------------|
B-----------------------------------|-----------------------------------|
G--------/7--7---7-7--/10---7-------|-----------------------------------|
D--0---0----------------------------|--3--3--3--0--3--3/5---0-----------|
A-----------------------------------|-----------------------------------|
D-----------------------------------|-----------------------------------|


E-----------------------------------|-----------------------------------|
B-------13--10----------------------|-----------------------------------|
G--/14------------------------------|-----------------------------------|
D---------------12--10--------------|----------/7--5--0-----3----3/5----|
A-----------------------------------|-----------------------------------|
D-----------------------------------|-----------------------------------|


E------------10----10-----10--------|-----------------------------------|
B------/10------10----10------------|-----------------------------------|
G-----------------------------------|-----------------------------------|
D--0--------------------------------|---3---3---0---3---3/5-------------|
A-----------------------------------|---3---3---0---3---3/5-------------|
D-----------------------------------|---3---3---0---3---3/5-------------|


E-----------------------------------|-----------------------------------|
B-----------------------------------|-----------------------------------|
G-----------------------------------|-----------------------------------|
D---3---3---0---/5---/3-------------|-----------------------------------|
A---3---3---0---/5---/3-------------|-----------------------------------|
D---3---3---0---/5---/3-------------|-----------------------------------|


=====
Intro - Electric
=====

E-----------------------------------|-----------------------------------|
B-----------------------------------|-----------------------------------|
G-----------------------------------|-----------------------------------|
D-----------------------------------|-----------------------------------|
A------12-----10-----9--------------|------12------10------9------------|
D--0h10----0h9----0h7------0-3b-0---|--0h10-----0h9-----0h7----0-3b-0---|


E-----------------------------------|-----------------------------------|
B-----------------------------------|-----------------------------------|
G-----------------------------------|-----------------------------------|
D-----------------------------------|-----------------------------------|
A------12----10-----14----10-----12-|------12-----10-----9--------------|
D--0h10---0h9---0h12---0h9---0h10---|--0h10----0h9----0h7------0-3b-0---|


=====
Verse
=====

E-----------------------------------|-----------------------------------|
B-----------------------------------|-----------------------------------|
G--7------------5-5-----------------|-----------------------------------|
D--x------------x-x-----------------|--5-5----5-5-----------------------|
A--5------------3-3-----------------|--x-x----x-x-----------------------|
D-----------------------------------|--5-5----5-5-----------------------|


E-----------------------------------|-----------------------------------|
B-----------------------------------|-----------------------------------|
G-----------------------------------|-----------------------------------|
D-----------------------------------|-----------------------------------|
A------12-----10-----9--------------|------12------10------9------------|
D--0h10----0h9----0h7------0-3b-0---|--0h10-----0h9-----0h7----0-3b-0---|


E-----------------------------------|-----------------------------------|
B-----------------------------------|-----------------------------------|
G--7------------5-5-----------------|-----------------------------------|
D--x------------x-x-----------------|--5-5----5-5-----------------------|
A--5------------3-3-----------------|--x-x----x-x-----------------------|
D-----------------------------------|--5-5----5-5-----------------------|


=====
Pre-Chorus
=====

E-----------------------------------|-----------------------------------|
B-----------------------------------|-----------------------------------|
G-----------------------------------|---------7-----------7-------------|
D---7----5----0----3----3/5---0-----|---------7-----------7-------------|
A---7----5----0----3----3/5---0-----|---------5-----------5-------------|
D---7----5----0----3----3/5---0-----|---0--0--0---0-0--0--0-------------|


E-----------------------------------|-----------------------------------|
B-----------------------------------|-----------------------------------|
G-----------------------------------|---------7-----------5-------------|
D---3----3----0----3----3/5---0-----|---------7-----------5-------------|
A---3----3----0----3----3/5---0-----|---------5-----------5-------------|
D---3----3----0----3----3/5---0-----|---0--0--0---0-0--0--0-------------|


E-----------------------------------|-----------------------------------|
B-----------------------------------|-----------------------------------|
G-----------------------------------|---------7-----------7-------------|
D---7----5----0----3----3/5---0-----|---------7-----------7-------------|
A---7----5----0----3----3/5---0-----|---------5-----------5-------------|
D---7----5----0----3----3/5---0-----|---0--0--0---0-0--0--0-------------|


E-----------------------------------|
B-----------------------------------|
G-----------------------------------|
D---3----3----0----3----3/5---------|
A---3----3----0----3----3/5---------|
D---3----3----0----3----3/5---------|


=====
Chorus
=====

E------0------0-----0-------0------|--3----3--3------3------3--3-------|
B------3------3-----3-------3------|--3----3--3------3------3--3-------|
G------2------2-----2-------2------|--0----0--0------0------0--0-------|
D------0------0-----0-------0------|--0----0--0------0------0--0-------| x4
A------0------0-----0-------0------|--2----2--2------3------3--3-------|
D------0---0--0-----0-----0-0------|-----------------------------------|


=====
Solo
=====

E-13p12p10--------------------------|-----------------------------------|
B---------13p12p10-13p12p10---------|----13-----------------------------|
G--------------------------13p12p10-|-12b--12-p10h12-10-----------------|
D-----------------------------------|-------------------12p10-12p10-12--|
A-----------------------------------|-----------------------------------|
D-----------------------------------|-----------------------------------|


E-----------------------------------|--3p1p0----------------------------|
B-10~~------------------------------|--------3p1p0-3p1p0----------------|
G-10~~------------------------------|--------------------4p2p0----------|
D-----12--------------3---7b--rb~~--|--------------------------5p3p0----|
A----------------3--5---------------|-----------------------------------|
D----------3--5---------------------|-----------------------------------|


E-----------------------------------|-----------------------------------|
B-----------------------------------|-----------------------------------|
G-----------------------------------|-------------------5---5--7--------|
D-5-3p0-5-3~~---------5-3b----------|----------------/7---7-------------|
A------------5p3-5p3--------5p3-5~--|------------3----------------------|
D-----------------------------------|---3-3-3-5-------------------------|


E-10---------10----------10---------|------10h13---13h15---13h15---15b~~|
B---13p10--------13p10-----13p10----|-10h13-----13------15------15------|
G---------12----------12------------|-----------------------------------|
D-----------------------------------|-----------------------------------|
A-----------------------------------|-----------------------------------|
D-----------------------------------|-----------------------------------|


E~~~~~~~~~~~~~~~~~~~~~~~~~~~~-------|-----------------------------------|
B-----------------------------------|-/13tr--/13tr--/13tr---15----------|
G-----------------------------------|-/14tr--/14tr--/14tr---------------|
D-----------------------------------|-----------------------------------|
A-----------------------------------|-----------------------------------|
D-----------------------------------|-----------------------------------|


E-----------------------------------|-----------------------------------|
B-----------------------------------|--15b-------------------rb---------|
G-----------------------------------|-----------------------------------|
D-----------------------------------|-----------------------------------|
A-----------------------------------|-----------------------------------|
D-----------------------------------|-----------------------------------|


E-----------------------------------|-----------------------------------|
B--13~~~~~~~~~~~~~~~~~~~~-----------|--12---13---15----15---------------|
G-----------------------------------|--14b--15b--17b---17b--------------|
D-----------------------------------|-----------------------------------|
A-----------------------------------|-----------------------------------|
D-----------------------------------|-----------------------------------|

 
E-----------------------------------|-----------------------------------|
B--10----------12-------------------|--10~~~~~~~~~~~~~------------------|
G--12b---------14b------------------|--12b~~~~~~~~~~~~------------------|
D-----------------------------------|-----------------------------------|
A-----------------------------------|-----------------------------------|
D-----------------------------------|-----------------------------------|


=====
Bridge
=====

E-------------0---------------------|-----------------------------------|
B-------3---------3-----------------|--------3--------------------------|
G----------2----------2-------------|-----0---------0-------------------| x6
D---0---------------------0---------|-----------------------------------|
A-----------------------------------|--2--------3------2---3------------|
D-----------------------------------|-----------------------------------|


*Repeat Chorus
*Repeat Intro
Добавлено: 06.08.2013
Другие материалы по этой песне:

Страница создана 06.08.2013
http://primanota.ru/the-answer/waste-your-tears-chords.htm
Привет, Гость.
Предлагаем пройти революционный курс по гитаре.
Подарок от PrimaNota.Ru, забирай!