PrimaNota.ru - самый крупный в мире бесплатный архив песенных текстов, аккордов, табулатур и нот


The Answer - Use Me - таба, видео

Регистрация Запомнить меня
Войти через:  Facebook Google Twitter Vk Yandex Mail.ru

The Answer - Use Me - таба, видео

Печатать
Просмотров: 97
Уроки эстрадного вокала в Санкт-Петербурге
Use Me - The Answer
From "Revival"

Tuning: D A D G A D (Capo on 4th)


=====
Intro
=====

D|-------------------------------------|--------------------------------------|
A|-------------------------------------|--------------------------------------|
G|-0---0-------0------0---0-------0----|-0---0-------0------0---0-0-0-0-0-0---|
D|-0---0-------0------0---0-------0----|-0---0-------0------0---0-0-0-0-0-0---| x4
A|-3---3-------3------3---3-------3----|-3---3-------3------3---2-2-2-2-2-2---|
D|--------0--0-----0---------0--0----0-|--------0--0-----0--------------------|


=====
Verse
=====

D|---0---------------------------------|--------------------------------------|
A|---0---------------------------------|--------------------------------------|
G|---2---------------------------------|--------------------------------------|
D|---0---------------------------------|---------------------------0-------0--| x2
A|---0---------------------------------|------------------------3------2------|
D|---0---------------------------------|--------------------------------------|


D|--0-----------------0----------------|--0-----------------0-----------------|
A|--0-----------------0----------------|--0-----------------0-----------------|
G|--2-----4-2-4-2-----2-----4-2-4-2----|--2-----4-2-4-2-----2-----------------|
D|--0--0--0-0-0-0--0--0--0--0-0-0-0--0-|--0--0--0-0-0-0--0--0-----------------|
A|--0--0-----------0--0--0-----------0-|--0--0-----------0--0---3-3-3-3-2-0---|
D|--0--0-----------0--0--0-----------0-|--0--0-----------0--0-----------------|


D|--0-----------------0----------------|--0-----------------0-----------------|
A|--0-----------------0----------------|--0-----------------0-----------------|
G|--2-----4-2-4-2-----2-----4-2-4-2----|--2-----4-2-4-2-----2-----4-2-4-2-----|
D|--0--0--0-0-0-0--0--0--0--0-0-0-0--0-|--0--0--0-0-0-0--0--0--0--0-0-0-0--0--|
A|--0--0-----------0--0--0-----------0-|--0--0-----------0--0--0-----------0--|
D|--0--0-----------0--0--0-----------0-|--0--0-----------0--0--0-----------0--|


D|-------------------------------------|--------------------------------------|
A|-------------------------------------|--------------------------------------|
G|-------------------------------------|--------------------------------------|
D|--/5-5-5-5-5-5-5-5-5-5-5-5-5---3-----|---/5-5-5-5-5-5-5-5-5-5-5-5-5---3-----|
A|--/5-5-5-5-5-5-5-5-5-5-5-5-5---3-----|---/5-5-5-5-5-5-5-5-5-5-5-5-5---3-----|
D|--/5-5-5-5-5-5-5-5-5-5-5-5-5---3-----|---/5-5-5-5-5-5-5-5-5-5-5-5-5---3-----|


D|-------------------------------------|--------------------------------------|
A|-------------------------------------|--------------------------------------|
G|14--14-12--14--12--14--14-16--14--12-|14--14-12--14--12--14--16-16-16-16-14-|
D|-0---0--0---0---0---0---0--0---0---0-|-0---0--0---0---0---0---0--0--0--0--0-|
A|-------------------------------------|--------------------------------------|
D|-------------------------------------|--------------------------------------|


D|-------------------------------------|--------------------------------------|
A|-------------------------------------|--------------------------------------|
G|-------------------------------------|--------------------------------------|
D|--/5-5-5-5-5-5-5-5-5-5-5-5-5---3-----|---/5-5-5-5-5-5-5-5-5-5-5-5-5-5-5-5---|
A|--/5-5-5-5-5-5-5-5-5-5-5-5-5---3-----|---/5-5-5-5-5-5-5-5-5-5-5-5-5-5-5-5---|
D|--/5-5-5-5-5-5-5-5-5-5-5-5-5---3-----|---/5-5-5-5-5-5-5-5-5-5-5-5-5-5-5-5---|


D|-------------------------------------|-------------------------------------------------|
A|-------------------------------------|-------------------------------------------------|
G|-------------------------------------|-------------------------------------------------|
D|--/7-7-7-7-7-7-7-7-7-7-7-7-7-7-7-7---|/10-10-10-10-10-10-10-10-10-10-10-10-10-10-10-10-|
A|--/7-7-7-7-7-7-7-7-7-7-7-7-7-7-7-7---|/10-10-10-10-10-10-10-10-10-10-10-10-10-10-10-10-|
D|--/7-7-7-7-7-7-7-7-7-7-7-7-7-7-7-7---|/10-10-10-10-10-10-10-10-10-10-10-10-10-10-10-10-|


=====
Chorus
=====

"Use me..."
D|-------------------------------------|--------------------------------------|
A|-------------------------------------|--------------------------------------|
G|--7-----5---5---5--7-----5---5---5---|--7---7--5--7------7--5-5-5-5-5-5-----|
D|--7-----5---5---5--7-----5---5---5---|--7---7--5--7------7--5-5-5-5-5-5-----|
A|--5-----3p0-3p0-3--5-----3p0-3p0-3---|--5---5--3--5------5--3-3-3-3-3-3-----|
D|------0----------------0-------------|---------------0----------------------|


D|-------------------------------------|--------------------------------------|
A|-------------------------------------|--------------------------------------|
G|--7-----5---5---5--7-----5---5---5---|--7---7--5--7-----7---7--5--7---------|
D|--7-----5---5---5--7-----5---5---5---|--7---7--5--7-----7---7--5--7---------|
A|--5-----3p0-3p0-3--5-----3p0-3p0-3---|--5---5--3--5-----5---5--3--5---------|
D|------0----------------0-------------|---------------0---------------0------|


=====
*Repeat Intro
*Repeat Verse x1
*Repeat Chorus x1
=====


=====
Bridge
=====

"Lead us..."
D|-------------------------------------|--------------------------------------|
A|---3-3-3-3-3-3-3-3-3-3-3-3-3-3-3-3---|--------------------------------------|
G|---0-0-0-0-0-0-0-0-0-0-0-0-0-0-0-0---|---2-2-2-2-2-2-2-2-2-2-2-2-2-2-2-2----|
D|---0-0-0-0-0-0-0-0-0-0-0-0-0-0-0-0---|---0-0-0-0-0-0-0-0-0-0-0-0-0-0-0-0----| x2
A|---3-3-3-3-3-3-3-3-2-2-2-2-2-2-2-2---|---0-0-0-0-0-0-0-0-0-0-0-0-0-0-0-0----|
D|-------------------------------------|---0-0-0-0-0-0-0-0-0-0-0-0-0-0-0-0----|


=====
Solo
=====

D|--12-12--12-12--12-12---12-12--12-12-12|-15p12-15p12-15p12-15p12-15p12-15p12-15b|
A|15b----15b----15b-----15b----15b-------|-----15----15----15----15----15----15---|
G|---------------------------------------|----------------------------------------|
D|---------------------------------------|----------------------------------------|
A|---------------------------------------|----------------------------------------|
D|---------------------------------------|----------------------------------------|

    tr////////////////
D|--/17-15-14-12-14-15-14h15p14----------|----------------------------------------|
A|------------------------------14h15p14-|-14b-------12-------14------------------|
G|---------------------------------------|--------------12-10-12b-p10-------------|
D|---------------------------------------|----------------------------12-12~~~\---|
A|---------------------------------------|----------------------------------------|
D|---------------------------------------|----------------------------------------|


D|---------------------------------------|----------------------------------------|
A|---------------------------------------|----------------------------------------|
G|---------------------------------------|----------------------------------------|
D|---/2----0-----------------------------|----------------------------------------|
A|--------------3--2--3----2----0--------|----------------------------------------|
D|---------------------------------5-----|-7---7-/9\-7---5--7--5-\4--0--0---------|


D|---------------------------------------|----------------------------------------|
A|---------------------------------------|-------------15b~~~~~~~~~~~~~~~~--------|
G|---------------------10h12p10--10h12-14|-12p10h12h14----------------------------|
D|------10h12p10--10h12--------12--------|----------------------------------------|
A|-10h12--------12-----------------------|----------------------------------------|
D|---------------------------------------|----------------------------------------|

*Repeat intro riff palm muted, then:

=====
Outro
=====

"So lead..."
D|-------------------------------------|--------------------------------------|
A|-------------------------------------|--------------------------------------|
G|-------------------------------------|--7---7--5--7------7--5-5-5-5-5-5-----|
D|--10\--------------9\----------------|--7---7--5--7------7--5-5-5-5-5-5-----|
A|-------------------------------------|--5---5--3--5------5--3-3-3-3-3-3-----|
D|--10\--------------9\----------------|---------------0-------------------0--|


D|-------------------------------------|--------------------------------------|
A|-------------------------------------|--------------------------------------|
G|-------------------------------------|--7---7--5--7-----7---7--5--7---------|
D|--10\--------------9\----------------|--7---7--5--7-----7---7--5--7---------|
A|-------------------------------------|--5---5--3--5-----5---5--3--5---------|
D|--10\--------------9\----------------|---------------0---------------0------|


D|-------------------------------------|--------------------------------------|
A|---3-3-3-3-3-3-3-3-3-3-3-3-3-3-3-3---|--------------------------------------|
G|---0-0-0-0-0-0-0-0-0-0-0-0-0-0-0-0---|---2-2-2-2-2-2-2-2-2-2-2-2-2-2-2-2----|
D|---0-0-0-0-0-0-0-0-0-0-0-0-0-0-0-0---|---0-0-0-0-0-0-0-0-0-0-0-0-0-0-0-0----|
A|---3-3-3-3-3-3-3-3-2-2-2-2-2-2-2-2---|---0-0-0-0-0-0-0-0-0-0-0-0-0-0-0-0----|
D|-------------------------------------|---0-0-0-0-0-0-0-0-0-0-0-0-0-0-0-0----|


"Use me..."
D|-------------------------------------|--------------------------------------|
A|-------------------------------------|--------------------------------------|
G|--7-----5---5---5--7-----5---5---5---|--7---7--5--7------7--5-5-5-5-5-5-----|
D|--7-----5---5---5--7-----5---5---5---|--7---7--5--7------7--5-5-5-5-5-5-----|
A|--5-----3p0-3p0-3--5-----3p0-3p0-3---|--5---5--3--5------5--3-3-3-3-3-3-----|
D|------0----------------0-------------|---------------0----------------------|


D|-------------------------------------|--------------------------------------|
A|-------------------------------------|--------------------------------------|
G|--7-----5---5---5--7-----5---5---5---|--7---7--5--7-----7---7--5--7---------|
D|--7-----5---5---5--7-----5---5---5---|--7---7--5--7-----7---7--5--7---------|
A|--5-----3p0-3p0-3--5-----3p0-3p0-3---|--5---5--3--5-----5---5--3--5---------|
D|------0----------------0-------------|---------------0---------------0------|


D|-------------------------------------|--------------------------------------|
A|-------------------------------------|--------------------------------------|
G|--7--7\------------------------------|--------------------------------------|
D|--7--7\------------------------------|--------------------------------------|
A|--5--5\------------------------------|--------------------------------------|
D|-------------------------------------|--------------------------------------|
Добавлено: 19.08.2013
Другие материалы по этой песне:
  • Аккорды и текст

Страница создана 19.08.2013
http://primanota.ru/the-answer/use-me-chords.htm
Привет, Гость.
Предлагаем пройти революционный курс по гитаре.
Подарок от PrimaNota.Ru, забирай!