PrimaNota.ru - самый крупный в мире бесплатный архив песенных текстов, аккордов, табулатур и нот


The Amity Affliction - Stairway To Hell - таба, бас-таба, видео

Регистрация Запомнить меня
Войти через:  Facebook Google Twitter Vk Yandex Mail.ru

The Amity Affliction - Stairway To Hell - таба, бас-таба, видео

Печатать
Просмотров: 235
The Amity Affliction 
stairway to hell

Guitar 1 only. 


Into 
D#|---------------------------------------------------------------------|
A#|---6--------5----------5--6-------5--------5---------5-6-8-----------|
F#|------7-7-------5-5-----------7------5-5-------5-5-------------------|
C#|---------------------------------------------------------------------|
G#|---5--------0----------0----------0--------0-------------------------|
C#|---------------------------------------------------------------------|

D#|---------------------------------------------------------------------|
A#|---6--------5----------5--6-------5--------5-------------------------|
F#|------7-7-------5-5-----------7------5-5-------5-5-5-7-7-------------|
C#|---------------------------------------------------------------------|
G#|---5--------0----------0----------0--------0-------------------------|
C#|---------------------------------------------------------------------|

Verse 
D#|---------------------------------------------------------------------|
A#|---------------------------------------------------------------------|
F#|---------------------------------------------------------------------|
C#|--0---10---8---7---10---12-------------------------------------------|
G#|--0---10---8---7---10---12------x2-----------------------------------|
C#|--0---10---8---7---10---12-------------------------------------------|


D#|----------8----------------------------------------------------------|
A#|-----5-6-----6-5-----------------------------------------------------|
F#|--7---------------7------x8------------------------------------------|
C#|---------------------------------------------------------------------|
G#|------------------------------or until cords come--------------------|
C#|---------------------------------------------------------------------|

Chorus        
D#|---------------------------------------------------------------------|
A#|---------------------------------------------------------------------|
F#|---------------------------------------------------------------------|
C#|--88888888--77777777--00000—-10/12-12-12-12---10/12-12-12-12---------|
G#|--88888888--77777777--00000—-10/12-12-12-12---10/12-12-12-12---x3----|
C#|--88888888--77777777--00000—-10/12-12-12-12---10/12-12-12-12---------|

D#|---------------------------------------------------------------------|
A#|---------------------------------------------------------------------|
F#|---------------------------------------------------------------------|
C#|--88888888--77777777--00000—-10/12-12-12-12--88888888--77777777--0---|
G#|--88888888--77777777--00000—-10/12-12-12-12--88888888--77777777--0---|
C#|--88888888--77777777--00000—-10/12-12-12-12--88888888--77777777--0---|

Bridge 
D#|---------------------------------------------------------------------|
A#|---------------------------------------------------------------------|
F#|---------------------------------------------------------------------|
C#|--0---10---8---7---10---12---0---10---8---7---12-12-12-12-12---------|
G#|--0---10---8---7---10---12---0---10---8---7---12-12-12-12-12---------|
C#|--0---10---8---7---10---12---0---10---8---7---12-12-12-12-12---------|


D#|---------------------------------------------------------------------|
A#|---------------------------------------------------------------------|
F#|---------------------------------------------------------------------|
C#|--10/12-12-12-12---10/12-12-12-12---88888888---7777777---0-----------|
G#|--10/12-12-12-12---10/12-12-12-12---88888888---7777777---0---x3------|
C#|--10/12-12-12-12---10/12-12-12-12---88888888---7777777---0-----------|


    

D#|---------------------------------------------------------------------|
A#|---------------------------------------------------------------------|
F#|---------------------------------------------------------------------|
C#|--00-00-00-00---10-10-10-10--888888--77--0---------------------------|
G#|--00-00-00-00---10-10-10-10--888888--77--0---------------------------|
C#|--00-00-00-00---10-10-10-10--888888--77--0---------------------------|
Guitar 2 plays here (guitar 1 doesn't do anything) 
Chorus        
D#|---------------------------------------------------------------------|
A#|---------------------------------------------------------------------|
F#|---------------------------------------------------------------------|
C#|--88888888--77777777--00000—-10/12-12-12-12---10/12-12-12-12---------|
G#|--88888888--77777777--00000—-10/12-12-12-12---10/12-12-12-12---x3----|
C#|--88888888--77777777--00000—-10/12-12-12-12---10/12-12-12-12---------|

D#|---------------------------------------------------------------------|
A#|---------------------------------------------------------------------|
F#|---------------------------------------------------------------------|
C#|--88888888--77777777--00000—-10/12-12-12-12--88888888--77777777--0---|
G#|--88888888--77777777--00000—-10/12-12-12-12--88888888--77777777--0---|
C#|--88888888--77777777--00000—-10/12-12-12-12--88888888--77777777--0---|

D#|---------------------------------------------------------------------|
A#|---6--------5----------5--6-------5--------5---------5-6-8-----------|
F#|------7-7-------5-5-----------7------5-5-------5-5-------------------|
C#|---------------------------------------------------------------------|
G#|---5--------0----------0----------0--------0-------------------------|
C#|---------------------------------------------------------------------|

D#|---------------------------------------------------------------------|
A#|---6--------5----------5--6-------5--------5-------------------------|
F#|------7-7-------5-5-----------7------5-5-------5-5-5-7-7-------------|
C#|---------------------------------------------------------------------|
G#|---5--------0----------0----------0--------0-------------------------|
C#|---------------------------------------------------------------------|

If you hear this just forget it... 
D#|---------------------------------------------------------------------|
A#|---------------------------------------------------------------------|
F#|---------------------------------------------------------------------|
C#|--0---10---8---7---10---12---0---10---8---7---12-12-12-12-12---------|
G#|--0---10---8---7---10---12---0---10---8---7---12-12-12-12-12---------|
C#|--0---10---8---7---10---12---0---10---8---7---12-12-12-12-12---------|

Outro
D#|---------------------------------------------------------------------|
A#|---------------------------------------------------------------------|
F#|---------------------------------------------------------------------|
C#|--0--10-10-10--8--7—-0-------00-00-00-00-00-00---88--77--------------|
G#|--0--10-10-10--8--7--0---x2--00-00-00-00-00-00---88--77--till end----|
C#|--0--10-10-10--8--7--0-------00-00-00-00-00-00---88--77--------------|

Добавлено: 10.04.2012
Другие материалы по этой песне:

Страница создана 06.03.2012
http://primanota.ru/the-amity-affliction/stairway-to-hell-chords.htm
Привет, Гость.
Предлагаем пройти революционный курс по гитаре.
Подарок от PrimaNota.Ru, забирай!