PrimaNota.ru - самый крупный в мире бесплатный архив песенных текстов, аккордов, табулатур и нот


The Amity Affliction - Skeletons - таба, видео

Регистрация Запомнить меня
Войти через:  Facebook Google Twitter Vk Yandex Mail.ru

The Amity Affliction - Skeletons - таба, видео

Печатать
Просмотров: 85
Skeletons - The Amity Affliction
Tuning: Drop B      
For an idea of rhythm check out this cover: https://www.youtube.com/watch?v=WcDt3S9p3Gg

Intro
C#|----------------------------------------------------------------------------| 
G#|----------------------------------------------------------------------------|  
E |----------------------------------------------------------------------------|  
B |-0-0-0-0-0--0-0-0-0-0-0-0-0-0--7-7-7-7--3-3-3-3-3--3-3-3-3-3-3-3-3--2-2-2-2-| x2 
F#|-0-0-0-0-0--0-0-0-0-0-0-0-0-0--3-3-3-3--3-3-3-3-3--3-3-3-3-3-3-3-3--2-2-2-2-|  
B |-0-0-0-0-0--0-0-0-0-0-0-0-0-0--3-3-3-3--3-3-3-3-3--3-3-3-3-3-3-3-3--2-2-2-2-|  

Verse 1
C#|-----------------------------------------------------------------------------------| 
G#|-----------------------------------------------------------------------------------|  
E |-----------------------------------------------------------------------------------|  
B |-----------------------------------------------------8-8-8-8-8-8-8-8-5-5-5-5-5-5-5-| x4
F#|-----------------------------------------------------8-8-8-8-8-8-8-8-5-5-5-5-5-5-5-|  
B |-0-0-0-0-0-0-0-0-0-8-0-0-0-0-10-10-10-10-12-12-12-12-8-8-8-8-8-8-8-8-5-5-5-5-5-5-5-|  

Pre Chorus
(after the first "but all alone..")
C#|----------| 
G#|-13-12-10-|  
E |----------|  
B |----------| x5
F#|----------|  
B |----------|  

Chorus
C#|---------------------------------------------------------------------------------------- 
G#|----------------------------------------------------------------------------------------  
E |---------------------------------------------------------------------------------------- 
B |-8-8-8-8-8-8-8-8-8-8-8-8--5-5-5-5-5-5-5-5-5-5-5-5--0-0-0-0-0-0-0-0-0-0-0-0-0--3-3-3-3-3-
F#|-8-8-8-8-8-8-8-8-8-8-8-8--5-5-5-5-5-5-5-5-5-5-5-5--0-0-0-0-0-0-0-0-0-0-0-0-0--3-3-3-3-3- 
B |-8-8-8-8-8-8-8-8-8-8-8-8--5-5-5-5-5-5-5-5-5-5-5-5--0-0-0-0-0-0-0-0-0-0-0-0-0--3-3-3-3-3-  

---------------| 
---------------|  
---------------|
-3-3-3-3-3-3-3-| x2
-3-3-3-3-3-3-3-| 
-3-3-3-3-3-3-3-| 

Post Chorus (same as intro)
C#|----------------------------------------------------------------------------| 
G#|----------------------------------------------------------------------------|  
E |----------------------------------------------------------------------------|  
B |-0-0-0-0-0--0-0-0-0-0-0-0-0-0--7-7-7-7--3-3-3-3-3--3-3-3-3-3-3-3-3--2-2-2-2-| x2 
F#|-0-0-0-0-0--0-0-0-0-0-0-0-0-0--3-3-3-3--3-3-3-3-3--3-3-3-3-3-3-3-3--2-2-2-2-|  
B |-0-0-0-0-0--0-0-0-0-0-0-0-0-0--3-3-3-3--3-3-3-3-3--3-3-3-3-3-3-3-3--2-2-2-2-|  

Verse 2
C#|-----------------------------------------------------------------------| 
G#|-----------------------------------------------------------------------|  
E |-----------------------------------------------------------------------|  
B |-----------------------------------------------------8-8-8-8-8-8-8-8-7-| 
F#|-----------------------------------------------------8-8-8-8-8-8-8-8-7-|  
B |-0-0-0-0-0-0-0-0-0-8-0-0-0-0-10-10-10-10-12-12-12-12-8-8-8-8-8-8-8-8-7-|  

then

C#|-----------------------------------------------------------------------------------| 
G#|-----------------------------------------------------------------------------------|  
E |-----------------------------------------------------------------------------------|  
B |-----------------------------------------------------8-8-8-8-8-8-8-8-5-5-5-5-5-5-5-| x2
F#|-----------------------------------------------------8-8-8-8-8-8-8-8-5-5-5-5-5-5-5-|  
B |-0-0-0-0-0-0-0-0-0-8-0-0-0-0-10-10-10-10-12-12-12-12-8-8-8-8-8-8-8-8-5-5-5-5-5-5-5-|  


C#|---------------------------------------------------------------------------| 
G#|--------------------11---------------------4---------------------11--------|  
E |--------------------14---------------------7---------------------14--------|  
B |-------------------------------------------------------------------8-8-8-7-| 
F#|-------------------------------------------------------------------8-8-8-7-|  
B |-0-0-0-0-0-0-0-0-0-8---0-0-0-0-0-0-0-0-0-8---0-0-0-0-0-0-0-0-0-8---8-8-8-7-|  

Chorus
C#|---------------------------------------------------------------------------------------- 
G#|----------------------------------------------------------------------------------------  
E |---------------------------------------------------------------------------------------- 
B |-8-8-8-8-8-8-8-8-8-8-8-8--5-5-5-5-5-5-5-5-5-5-5-5--0-0-0-0-0-0-0-0-0-0-0-0-0--3-3-3-3-3-
F#|-8-8-8-8-8-8-8-8-8-8-8-8--5-5-5-5-5-5-5-5-5-5-5-5--0-0-0-0-0-0-0-0-0-0-0-0-0--3-3-3-3-3- 
B |-8-8-8-8-8-8-8-8-8-8-8-8--5-5-5-5-5-5-5-5-5-5-5-5--0-0-0-0-0-0-0-0-0-0-0-0-0--3-3-3-3-3-  

---------------| 
---------------|  
---------------|
-3-3-3-3-3-3-3-| x2
-3-3-3-3-3-3-3-| 
-3-3-3-3-3-3-3-| 

Bridge
C#|----------------------------------------| 
G#|-13-10-8-5-6-3-1-3--13-10-8-5-6-8-10-13-|  
E |----------------------------------------|  
B |----------------------------------------| x2 
F#|----------------------------------------|  
B |----------------------------------------|  

Breakdown
C#|---------------------------------------------| 
G#|---------------------------------------------|  
E |---------------------------------------------|  
B |-0-0-0-0-0-0-0-0-0-0--0-0-0-0-0-0-0--7-7-5-5-| 
F#|-0-0-0-0-0-0-0-0-0-0--0-0-0-0-0-0-0--5-5-5-5-|  
B |-0-0-0-0-0-0-0-0-0-0--0-0-0-0-0-0-0--5-5-5-5-|  

C#|-----------------------------------------------------| 
G#|-----------------------------------------------------|  
E |-----------------------------------------------------|  
B |-0-0-0-0-0-0-0-0-0-0--0-0-0-0-0-0-0--7-7-10-10-10-10-| 
F#|-0-0-0-0-0-0-0-0-0-0--0-0-0-0-0-0-0------------------|  
B |-0-0-0-0-0-0-0-0-0-0--0-0-0-0-0-0-0------------------| 

Chorus
C#|---------------------------------------------------------------------------------------- 
G#|----------------------------------------------------------------------------------------  
E |---------------------------------------------------------------------------------------- 
B |-8-8-8-8-8-8-8-8-8-8-8-8--5-5-5-5-5-5-5-5-5-5-5-5--0-0-0-0-0-0-0-0-0-0-0-0-0--3-3-3-3-3-
F#|-8-8-8-8-8-8-8-8-8-8-8-8--5-5-5-5-5-5-5-5-5-5-5-5--0-0-0-0-0-0-0-0-0-0-0-0-0--3-3-3-3-3- 
B |-8-8-8-8-8-8-8-8-8-8-8-8--5-5-5-5-5-5-5-5-5-5-5-5--0-0-0-0-0-0-0-0-0-0-0-0-0--3-3-3-3-3-  

---------------| 
---------------|  
---------------|
-3-3-3-3-3-3-3-| x2
-3-3-3-3-3-3-3-| 
-3-3-3-3-3-3-3-| 

Outro
C#|----------------------------------------------------------------------------| 
G#|----------------------------------------------------------------------------|  
E |----------------------------------------------------------------------------|  
B |-0-0-0-0-0--0-0-0-0-0-0-0-0-0--7-7-7-7--3-3-3-3-3--3-3-3-3-3-3-3-3--2-2-2-2-| x2 
F#|-0-0-0-0-0--0-0-0-0-0-0-0-0-0--3-3-3-3--3-3-3-3-3--3-3-3-3-3-3-3-3--2-2-2-2-|  
B |-0-0-0-0-0--0-0-0-0-0-0-0-0-0--3-3-3-3--3-3-3-3-3--3-3-3-3-3-3-3-3--2-2-2-2-|  
Добавлено: 01.11.2015
Другие материалы по этой песне:
  • Аккорды и текст

Страница создана 01.11.2015
http://primanota.ru/the-amity-affliction/skeletons-chords.htm
Привет, Гость.
Предлагаем пройти революционный курс по гитаре.
Подарок от PrimaNota.Ru, забирай!