PrimaNota.ru - самый крупный в мире бесплатный архив песенных текстов, аккордов, табулатур и нот


The Amity Affliction - Rip Foghorn - таба, бас-таба, видео

Регистрация Запомнить меня
Войти через:  Facebook Google Twitter Vk Yandex Mail.ru

The Amity Affliction - Rip Foghorn - таба, бас-таба, видео

Печатать
Просмотров: 95
THE AMITY AFFLICTION
R.I.P FOGHORN
DROP C#


Intro
GTR1 (individually first)                                    THEN
D#|---------------------------------------------------------       --------------|
A#|-----13~-----------------------13~-----------------------       ----13~-------|
F#|--14~----12~----------------14~----12~--------/15~-14~~--       -14~----------|
C#|----------------15~-14~~-----------------15~------------- x3    --------14~~--|
G#|---------------------------------------------------------       --------------|
C#|---------------------------------------------------------       --------------|
GTR2 (starts at 0:13)
D#|--------------------------------------------------------|
A#|--------------------------------------------------------|up & down
F#|--------------------------------------------------------|sixteenth
C#|--0-(12)----------------8---------10-10-10-10-----------|notes
G#|--0-(12)-(x128)---------8-(x124)--10-10-10-10-----------|
C#|--0-(12)----------------8---------10-10-10-10-----------|



Verse 0:40
GTR1          repeat from here                      1st ending           2nd ending
D#|----------|--13~~-12~-------------13-15~-18~-17~|--------------------|-13-15-15-15-15-|
A#|-----14---|----------13~-15\10--11--------------|-15~\13---15\(5)----|----------------|
F#|-------13~|•------------------------------------|--------------------|----------------|
C#|-(14)~~~~~|~~~~~~~~~~~~~------------------------|--------------------|----------------| x2
G#|----------|•------------------------------------|--------------------|----------------|
C#|----------|-------------------------------------|--------------------|----------------|
GTR2
D#|-------------------------------------------------------------------------------|
A#|-----------------------~-------------------------------------------------------|
F#|-------------------------------------------------------------------------------|
C#|--00-00-00-00-0000--88-88-88-88-8888--00-00-00-00-0000--88-88-88-888810101010--| x2
G#|--00-00-00-00-0000--88-88-88-88-8888--00-00-00-00-0000--88-88-88-888810101010--|
C#|--00-00-00-00-0000--88-88-88-88-8888--00-00-00-00-0000--88-88-88-888810101010--|
                                                     on 2nd repeat |***** *     | Palm muted




Chorus 1:03
GTR1 & GTR2 (figure out how many strums, 16 or 8)
D#|-------------------------------------------------------------------|
A#|-----------------------~-------------------------------------------|
F#|-------------------------------------------------------------------|
C#|--8----0--10--8--0--10--7--8--0--10--7--8----10--------------------| x1
G#|--8----0--10--8--0--10--7--8--0--10--7--8----10--------------------|
C#|--8----0--10--8--0--10--7--8--0--10--7--8----10--5-7-5-3-3-5-3-2---|




"And I Know.." 1:26
GTR1
D#|------------12~-13~--15~~~-13~-12~---------12~~-13~|
A#|--15tr~~-15------------------------13~~15~~--------|
F#|---------------------------------------------------|
C#|---------------------------------------------------|
G#|---------------------------------------------------|
C#|---------------------------------------------------|

|-----------12~-13~~--15~-13~~12~-------------------|
|-15tr~~-15~----------------------13~~12~~15~~14~~--|
|---------------------------------------------------|
|---------------------------------------------------|
|---------------------------------------------------|
|---------------------------------------------------|
GTR2
D#|---------------------------------------------------|
A#|-----------------------~---------------------------|
F#|---------------------------------------------------|
C#|--0~-----------------3~------------8~------5~---10~|
G#|--0~-----------------3~------------8~------5~---10~|
C#|--0~-----------------3~------------8~------5~---10~|

|---------------------------------------------------|
|---------------------------------------------------|
|---------------------------------------------------|
|-0~------------------3~----------8~--7~--5~--11~12~|
|-0~------------------3~----------8~--7~--5~--11~12~|
|-0~------------------3~----------8~--7~--5~--11~12~|



Breakdown 1:50|
GTR1 (i think) (comes in on third repeat)|
D#|-----------------------------------------------------------|
A#|-----------------------------------------------------------|
F#|-14-14--14-14--14-14--14--14--14-14-14--14-14-14-14--------|
C#|-12-12--12-12--12-12--14--14--15-15-15--17-17-17-17-18-17--|
G#|-12-12--12-12--12-12--14--14--15-15-15--17-17-17-17-18-17--|
C#|-----------------------------------------------------------|


------------------------------------------------------|
------------------------------------------------------|
---14-14-14-14-14-14--14-14--14-14--14--14--14-14-14--|
---14-14-14-14-14-15--12-12--12-12--14--14--15-15-15--|
---14-14-14-14-14-15--12-12--12-12--14--14--15-15-15--|
------------------------------------------------------|
GTR2                                               x3                                   x1|
D#|------|-------------------------------------------|
A#|------|-OH!---------------------------------------|
F#|------|-------------------------------------------|
C#|------|-------------------------------------------|
G#|------|-------------00000000--------------000-000-|
C#|-00-00|-00-00-00-00-00000000-0-0-0-0-0----000-000-|
                       ********              *** *** |


|----------------------------------------|
|----------------------------------------|
|----------------------------------------|really pluck
|-------------------------------------5~-|out the single
|-------------00000000-----00000000--<5~-|notes
|-00-00-00-00-00000000-0-0-00000000---5~-|
              ********     ******** (fade in)



         PLAY CHORUS X1 (WITH 12'S AT THE END, NOT THE RIFF)



2:38 Interlude Thing
GTR1
D#|-------------------------------------------------|
A#|------------------------------13~--------13~-----|
F#|-----9h10~~------9h10~9~---------14~--------14~--|
C#|-10~~--------10~~--------15~~--------15~---------|
G#|-------------------------------------------------|
C#|-------------------------------------------------|
GTR2
D#|------------------------------------|
A#|------------------------------------|
F#|------------------------------------|
C#|-10~---------------------0~---------|
G#|-10~---------------------0~---------|
C#|-10~---------------------0~---------|..

"It's Never Easy To Admit" (lots of Delay & Clean, |
D#|------------------------------------------------|
A#|------------------------------13~--------13~----|
F#|-----9h10~~------9h10~9~---------14~--------14~-|
C#|-10~~--------10~~--------15~~--------15~--------|
G#|------------------------------------------------|
C#|------------------------------------------------|

so just double strum some notes)
--------------------------------------------------------|
--------------------------13~-----------13~-13~-13~-13~-|
-12~--12-10-------------------10~-9h10~~----------------|
------------15~-14h15-15~-------------------------------|
--------------------------------------------------------|
--------------------------------------------------------|



Chorus 3:13
D#|-----------------------------------------------------------------|
A#|-----------------------~-----------------------------------------|
F#|-----------------------------------------------------------------|
C#|--8----0--10--8--0--1010101010-101010---1010101010-10-10-10-10---|
G#|--8----0--10--8--0--1010101010-101010---1010101010-10-10-10-10---|
C#|--8----0--10--8--0--1010101010-101010---1010101010-10-10-10-10---|..
                       * * * *    * * *    * * * *    
D#|---------------------------------------------------------------------------|
A#|-----------------------~---------------------------------------------------|
F#|---------------------------------------------------------------------------|
C#|--8--0--10--7--88888-8888-88888888-88888-1010101010-1010101010-11-11-11-11-|
G#|--8--0--10--7--88888-8888-88888888-88888-1010101010-1010101010-11-11-11-11-|
C#|--8--0--10--7--88888-8888-88888888-88888-1010101010-1010101010-11-11-11-11-|..
                  ****  ***  *******  ****  * * * *    * * * *
 

End Breakdown 3:36
D#|-------------------------------------------|-------------------------------------------------|
A#|-------------------------------------------|-------------------------------------------------|
F#|-------------------------------------------|-------------------------------------------------|
C#|-------------------------------------------|-------------------------------------------------|
G#|-00-00-00-00-00000000-0-0-0-0-0----000-000-|-00-00-00-00-00000000-0-0-0-0-0--0--0-0-0-000-000|
C#|-00-00-00-00-00000000-0-0-0-0-0----000-000-|-00-00-00-00-00000000-0-0-0-0-0--0--0-0-0-000-000|
    ** ** ** ** ******** * * * * *    *** ***   ** ** ** ** ******** * * * * *  *  * * * *** *** 
D#|-------------------------------------------|------------------------------------|
A#|-------------------------------------------|------------------------------------|
F#|-------------------------------------------|------------------------------------|
C#|-------------------------------------------|------------------------------------|
G#|-00-00-00-00-00000000-0-0-0-0-0----000-000-|-00~00~00~00~00000000~0~0~00000000~-|
C#|-00-00-00-00-00000000-0-0-0-0-0----000-000-|-00~00~00~00~00000000~0~0~00000000~-|
    ** ** ** ** ******** * * * * *    *** ***   ** ** ** ** ******** * * ********

THIS COMES IN ON THIRD PART OF BREAKDOWN          x3                            x1 
D#|-------------------------------------------------|----------------------------|
A#|-------------------------------------------------|----------------------------|
F#|-14-14-14-14-14-14-14-14-14-14-14-14-14-14-14-14-|-14-14-14-14-14-14-14-14-14-|
C#|-12-12-12-12-12-12-12-12-14-14-14-14-15-15-15-15-|-12-12-12-12-14-14-14-14-12-|
G#|-12-12-12-12-12-12-12-12-14-14-14-14-15-15-15-15-|-12-12-12-12-14-14-14-14-12-|
C#|-------------------------------------------------|----------------------------|

Done 90% sure most is correct
comment and rate ;p
Добавлено: 26.10.2013
Другие материалы по этой песне:

Страница создана 12.06.2012
http://primanota.ru/the-amity-affliction/rip-foghorn-chords.htm
Привет, Гость.
Предлагаем пройти революционный курс по гитаре.
Подарок от PrimaNota.Ru, забирай!