PrimaNota.ru - самый крупный в мире бесплатный архив песенных текстов, аккордов, табулатур и нот


The Amity Affliction - Chasing Ghosts - таба, видео

Регистрация Запомнить меня
Войти через:  Facebook Google Twitter Vk Yandex Mail.ru

The Amity Affliction - Chasing Ghosts - таба, видео

Печатать
Просмотров: 174
The Amity Affliction - Chasing Ghosts

So I learnt this both by ear and by watching other people's covers on youtube 
so I'm not 100% sure its right but its the closest I could get. Also this is 
my first tab so give an honest rating please. 
Also, when I first tabbed this I drunkenly put the lead notes on the wrong 
side so If I forgot to change one or two just swap them around and it'll be 
right.

Enjoy.

Tuning: Drop B

INTRO RIFF
0:11
C#|--------------------------------------------------------------------| _
G#|--------------------------------------------------------------------|  |
E |----------9--9--9--9--9--9--9--9--------9--9--9--9--9--9--9--9------|  |
B |-----0----8--8--8--8--8--8--8--8----0---8--8--8--8--8--8--8--8------|  |
F#|-----0----8--8--8--8--8--8--8--8----0---8--8--8--8--8--8--8--8------|  |
B |-----0----8--8--8--8--8--8--8--8----0---8--8--8--8--8--8--8--8------|  |
                                                                          |x2
C#|--------------------------------------------------------------------|  |
G#|----------8--8--8--8--8--8--8--8--------8--8--8--8--8--8--8--8------|  |
E |----------7--7--7--7--7--7--7--7--------7--7--7--7--7--7--7--7------|  |
B |-----0----5--5--5--5--5--5--5--5----0---5--5--5--5--5--5--5--5------|  |
F#|-----0----5--5--5--5--5--5--5--5----0---5--5--5--5--5--5--5--5------|  |
B |-----0----5--5--5--5--5--5--5--5----0---5--5--5--5--5--5--5--5------| _|


VERSE
0:30
C#|----------------------------------------------------------------------|
G#|----------------------------------------------------------------------|
E |-7-7-7-7-7-7-7-7-7-14-14-14-14-14-14-14-14-14-12-12-12-12-12-12-12-12-|
B |----------------------------------------------------------------------|
F#|-5-5-5-5-5-5-5-5-5-12-12-12-12-12-12-12-12-12-10-10-10-10-10-10-10-10-|
B |----------------------------------------------------------------------|

C#|----------------------------------------------------------------------|
G#|----------------------------------------------------------------------|
E |-10-10-10-10-10-10-10-10-9-9-9-9-9-9-9-9-10-10-10-10-10-10-10-10------|
B |----------------------------------------------------------------------|
F#|--8--8--8--8--8--8--8--8-7-7-7-7-7-7-7-7--8--8--8--8--8--8--8--8------|
B |----------------------------------------------------------------------|

C#|----------------------------------------------------------------------|
G#|----------------------------------------------------------------------|
E |-9-9-9-9-9-9-9-9-12-12-12-12-12-12-12-12------------------------------|
B |----------------------------------------------------------------------|
F#|-7-7-7-7-7-7-7-7-10-10-10-10-10-10-10-10------------------------------|
B |----------------------------------------------------------------------|

C#|----------------------------------------------------------------------|
G#|----------------------------------------------------------------------|
E |-7-7-7-7-7-7-7-7-7-14-14-14-14-14-14-14-14-14-12-12-12-12-12-12-12-12-|
B |----------------------------------------------------------------------|
F#|-5-5-5-5-5-5-5-5-5-12-12-12-12-12-12-12-12-12-10-10-10-10-10-10-10-10-|
B |----------------------------------------------------------------------|

C#|----------------------------------------------------------------------|
G#|----------------------------------------------------------------------|
E |-17-17-17-17-17-17-17-17-9-9-9-9-9-9-9-9-10-10-10-10-10-10-10-10------|
B |----------------------------------------------------------------------|
F#|-15-15-15-15-15-15-15-15-7-7-7-7-7-7-7-7--8--8--8--8--8--8--8--8------|
B |----------------------------------------------------------------------|

C#|----------------------------------------------------------------------|
G#|----------------------------------------------------------------------|
E |-12-12-12-12-12-12-12-12--17------------------------------------------|
B |----------------------------------------------------------------------|
F#|-10-10-10-10-10-10-10-10--15------------------------------------------|
B |----------------------------------------------------------------------|


CHORUS
0:49
Guitar 1 (Lead)

C#|----------8---------------8---------------8---------0--0--0-----------|
G#|------6-----6-6-------6-----6-6-------6-----6-6-------------6---------|
E |--7-7---7---------7-7---7---------7-7---7---------7--7--7-------------|
B |----------------------------------------------------------------------| x2
F#|----------------------------------------------------------------------|
B |----------------------------------------------------------------------|

Guitar 2 (Rhythm)                                         t=10
C#|----------------------------------------------------------------------|
G#|----------------------------------------------------------------------|
E |----------------------------------------------------------------------|
B |-8888888888888888-5555555555555555-0000000000000000-tttttttttttttttt--| x2
F#|-8888888888888888-5555555555555555-0000000000000000-tttttttttttttttt--|
B |-8888888888888888-5555555555555555-0000000000000000-tttttttttttttttt--|

               (Together)
Guitar 1 (Lead)          Guitar 2 (Rhythm)
C#|-----0----|           C#|----------|
G#|--6-------|           G#|----------|
E |----------|           E |----------|
B |----------|           B |--8--5----|
F#|----------|           F#|--8--5----|
B |----------|           B |--8--5----|


1:12
C#|-----------------------------------------------|
G#|-----------------------------------------------|
E |----------10-----------------------------------|
B |-----------8-----------------------------------|
F#|-----------8-------------------------15--------|
B |-00000000--8--00000000-0000-13-12-13----13-12--|

C#|-----------------------------------------------|
G#|-----------------------------------------------|
E |-----------------------------------------------|
B |---------------------------1--1--1-------------|
F#|---------------------------1--1--1-------------|
B |-00000000-00000000-0000----1--1--1-------------|

C#|-----------------------------------------------|
G#|-----------------------------------------------|
E |----------10-----------------------------------|
B |-----------8-----------------------------------|
F#|-----------8-------------------------15--------|
B |-00000000--8--00000000-0000-13-12-13----13-12--|

C#|-----------------------------------------------|
G#|-----------------------------------------------|
E |-----------------------------------------------|
B |---------------------------1-------------------|
F#|---------------------------1-------------------|
B |-00000000-00000000-0000----1-------------------|


1:31           (Together)
Guitar 1 (Lead)          Guitar 2 (Rhythm)
C#|-----0----|           C#|----------|
G#|--6-------|           G#|----------|
E |----------|           E |----------|
B |----------|           B |--8--5----|
F#|----------|           F#|--8--5----|
B |----------|           B |--8--5----|


1:36
INTRO RIFF


1:54
VERSE            <- cbf putting them there again, just scroll up.


2:13
CHORUS



2:32           
Guitar 1 (Lead)          
C#|-----0---------------|
G#|--6------------6--8--|
E |--------5--7---------|
B |---------------------|
F#|---------------------|
B |---------------------|

Guitar 2 (Rhythm)
C#|-------------------------------------------|
G#|-------------------------------------------|
E |-------------------------------------------|
B |--8--5--0--10--888888888888--555555555555--|
F#|--8--5--0--10--888888888888--555555555555--|
B |--8--5--0--10--888888888888--555555555555--|


2:46         
C#|---------------------|
G#|---------------------|
E |--10----7----9-------|
B |---------------------|
F#|---------------------|
B |---------------------|

2:56                            t=10
C#|-----------------------------------------------|
G#|-----------------------------------------------|
E |-----------------------------------------------|
B |-----------------------------------------------|
F#|-----------------------------------------------|
B |-00000000-00000000-0000-tttttttt-88888888------|

C#|-----------------------------------------------|
G#|-----------------------------------------------|
E |-----------------------------------------------|
B |-----------------------------------------------|
F#|-----------------------------------------------|
B |-88888888-88888888-8888-55555555-00000000------|

C#|-----------------------------------------------|
G#|-----------------------------------------------|
E |-----------------------------------------------|
B |-----------------------------------------------|
F#|-----------------------------------------------|
B |--0--2--3-00000000-0000-tttttttt-88888888------|

C#|-----------------------------------------------|
G#|-----------------------------------------------|
E |-14-12-10--------------------------------------|
B |-----------------------------------------------|
F#|-----------------------------------------------|
B |----------88888888-8888-55555555-00000000------|

C#|-----------------------------------------------| __
G#|-----------------------------------------------|   |
E |-----------------------------------------------|   |
B |-----------------------------------------------|   |
F#|-----------------------------------------------|   |
B |-00000000-00000000-0000-tttttttt-88888888------|   |
                                                      |x2
C#|-----------------------------------------------|   |
G#|-----------------------------------------------|   |
E |-----------------------------------------------|   |
B |-----------------------------------------------|   |
F#|-----------------------------------------------|   |
B |-88888888-88888888-8888-55555555-00000000------| __|


OUTRO
3:34
Guitar 1 (Lead)
C#|----------8---------------8---------------8---------0--0--0-----------|
G#|------6-----6-6-------6-----6-6-------6-----6-6-------------6---------|
E |--7-7---7---------7-7---7---------7-7---7---------7--7--7-------------|
B |----------------------------------------------------------------------| x4
F#|----------------------------------------------------------------------|
B |----------------------------------------------------------------------|

Guitar 2 (Rhythm)
C#|----------------------------------------------------------------------|
G#|-DONT-PLAY-THESE-TWO-THE-FIRST-TIME-----------------------------------|
E |----------------------------------------------------------------------|
B |-8888888888888888-5555555555555555-0000000000000000-tttttttttttttttt--| x4
F#|-8888888888888888-5555555555555555-0000000000000000-tttttttttttttttt--|
B |-8888888888888888-5555555555555555-0000000000000000-tttttttttttttttt--|

Guitar 1 (Lead)        Guitar 2 (Rhythm)
C#|---8----------|     C#|--------------|
G#|---6----------|     G#|--------------|
E |---7----------|     E |--------------|
B |--------------|     B |---8----------|
F#|--------------|     F#|---8----------|
B |--------------|     B |---8----------|

FIN
P.S Ahren is sexy
Добавлено: 17.09.2013
Другие материалы по этой песне:
  • Аккорды и текст

Страница создана 02.06.2013
http://primanota.ru/the-amity-affliction/chasing-ghosts-chords.htm
Привет, Гость.
Предлагаем пройти революционный курс по гитаре.
Подарок от PrimaNota.Ru, забирай!