PrimaNota.ru - самый крупный в мире бесплатный архив песенных текстов, аккордов, табулатур и нот


The Almost - Young Again - таба, видео

Регистрация Запомнить меня
Войти через:  Facebook Google Twitter Vk Yandex Mail.ru

The Almost - Young Again - таба, видео

Печатать
Просмотров: 122
Not many tabs of The Almost, that's weird.  This song is awesome and a ton of fun 
to play, so enjoy!

s = slide
^ = bend (whole step)


Intro (0:07-0:13)
E|---------------------------------|
B|---------------------------------|
G|-------------------------5-5-----|
D|-7-7-7-7-7-7-7-7-3-3-3-3-5-5-5-5-|
A|-7-7-7-7-7-7-7-7-3-3-3-3-3-3-5-5-|
D|-7-7-7-7-7-7-7-7-3-3-3-3-----5-5-| x2

Riff 1 (0:13-0:16) (Same as verse, but a different rhythm)
E|---------------------------------|
B|---------------------------------|
G|-14--14--14-141414--14--14141414-|
D|-x---x---x--x-x-x---x---x-x-x-x--|
A|-12--12--12-121212--12--12121212-|
D|---------------------------------|

Verse (0:16-0:39) (Rhythm isn't perfect, so learn that by ear)
E|----------------------------------------------------------------|
B|----------------------------------------------------------------|
G|-14-14-14--141414--14-14--141414--14-14-14-14-14--14-s-121212---|
D|-x--x--x---x-x-x---x--x---x-x-x---x--x--x--x--x---x--x--x-x-----|
A|-12-12-12--121212--12-12--121212--12-12-12-12-12--12-s-101010---|
D|----------------------------------------------------------------| x4

Pre-Chorus (0:39-0:44)
E|-------------------------------|
B|-------------------------------|
G|-------------5-5-5-------------|
D|-7-7-7-3-3-3-5-5-5-5-5-5-5-5-5-|
A|-7-7-7-3-3-3-3-3-3-5-5-5-5-5-5-|
D|-7-7-7-3-3-3-------5-5-5-5-5-5-| x2

Chorus (0:45-1:10) (Play entire Chorus twice)
E|---------------------------------------------|
B|---------------------------------------------|
G|---------------------------------------------|
D|-7-7-7777--5-5-5555--4-4-4444--4-4-4444------|
A|-7-7-7777--5-5-5555--4-4-4444--4-4-4444------|
D|-7-7-7777--5-5-5555--4-4-4444--4-4-4444------|
Chorus (Continued)
E|---------------------------------------------|
B|---------------------------------------------|
G|---------------------------------------------|
D|-7-7-7777--5-5-5555--4-4-4444--2-2-2-2-2-2-2-|
A|-7-7-7777--5-5-5555--4-4-4444--2-2-2-2-2-2-2-|
D|-7-7-7777--5-5-5555--4-4-4444--2-2-2-2-2-2-2-|
(Repeat last note(E) again after 2nd time)

Post Chorus Riff (1:10-1:12)
E|-----------|
B|-----------|
G|-----------|
D|-7-5-------|
A|-----3-5-7-|
D|-----------|

Verse (1:12-1:37)
E|----------------------------------------------------------------|
B|----------------------------------------------------------------|
G|-14-14-14--141414--14-14--141414--14-14-14-14-14--14-s-121212---|
D|-x--x--x---x-x-x---x--x---x-x-x---x--x--x--x--x---x--x--x-x-----|
A|-12-12-12--121212--12-12--121212--12-12-12-12-12--12-s-101010---|
D|----------------------------------------------------------------| x4

Break (1:37-1-:39)

Riff 1 (1:39-1:42)
E|---------------------------------|
B|---------------------------------|
G|-14--14--14-141414--14--14141414-|
D|-x---x---x--x-x-x---x---x-x-x-x--|
A|-12--12--12-121212--12--12121212-|
D|---------------------------------|

Chorus (1:42-2:05)
E|---------------------------------------------|
B|---------------------------------------------|
G|---------------------------------------------|
D|-7-7-7777--5-5-5555--4-4-4444--4-4-4444------|
A|-7-7-7777--5-5-5555--4-4-4444--4-4-4444------|
D|-7-7-7777--5-5-5555--4-4-4444--4-4-4444------|
Chorus (Continued)
E|---------------------------------------------|
B|---------------------------------------------|
G|---------------------------------------------|
D|-7-7-7777--5-5-5555--4-4-4444--2-2-2-2-2-2-2-|
A|-7-7-7777--5-5-5555--4-4-4444--2-2-2-2-2-2-2-|
D|-7-7-7777--5-5-5555--4-4-4444--2-2-2-2-2-2-2-| x2

Post-Chorus/Pre-Breakdown (2:05-2:10-|
E|-----------------------------------|
B|-----------------------------------|
G|-----------------------------------|
D|-2-2-2-2-2-2-2---------------------|
A|-2-2-2-2-2-2-2---------------------|
D|-2-2-2-2-2-2-2---------------------| x2

Breakdown/Solo (2:10-2:22)
E|-------------------------------------------|
B|-10--10--12-12-12-12--13--13--15-15-15-15--|
G|-12^-12^-14^14^14^14^-15^-15^-17^17^17^17^-|
D|-------------------------------------------|
A|-------------------------------------------|
D|-------------------------------------------| x2

Post Breakdown (2:24-2:35) (Starts Chorus back off with this)
E|------------------------------|
B|------------------------------|
G|------------------------------|
D|-5-5-5555--4-4-4444--4-4-4444-|
A|-5-5-5555--4-4-4444--4-4-4444-|
D|-5-5-5555--4-4-4444--4-4-4444-|
(Continued)
E|---------------------------------------------|
B|---------------------------------------------|
G|---------------------------------------------|
D|-7-7-7777--5-5-5555--4-4-4444--2-2-2-2-2-2-2-|
A|-7-7-7777--5-5-5555--4-4-4444--2-2-2-2-2-2-2-|
D|-7-7-7777--5-5-5555--4-4-4444--2-2-2-2-2-2-2-|

End Chorus (2:35-2:46)
E|---------------------------------------------|
B|---------------------------------------------|
G|---------------------------------------------|
D|-7-7-7777--5-5-5555--4-4-4444--4-4-4444------|
A|-7-7-7777--5-5-5555--4-4-4444--4-4-4444------|
D|-7-7-7777--5-5-5555--4-4-4444--4-4-4444------|
End Chorus (Continued)
E|---------------------------------------------|
B|---------------------------------------------|
G|---------------------------------------------|
D|-7-7-7777--5-5-5555--4-4-4444--2-2-2-2-2-2-2-|
A|-7-7-7777--5-5-5555--4-4-4444--2-2-2-2-2-2-2-|
D|-7-7-7777--5-5-5555--4-4-4444--2-2-2-2-2-2-2-| x2

Ending
E|---------------     E|-------------|
B|---------------     B|-------------|
G|---------------     G|-------------|
D|-2-2-2-2-2-2-2-     D|--7--------7-|
A|-2-2-2-2-2-2-2-     A|--7--------7-|
D|-2-2-2-2-2-2-2- x2  D|--7--------7-|
Добавлено: 07.05.2012
Другие материалы по этой песне:
  • Аккорды и текст

Страница создана 07.05.2012
http://primanota.ru/the-almost/young-again-chords.htm
Привет, Гость.
Предлагаем пройти революционный курс по гитаре.
Подарок от PrimaNota.Ru, забирай!