PrimaNota.ru - самый крупный в мире бесплатный архив песенных текстов, аккордов, табулатур и нот


The Allman Brothers Band - Soulshine Live - таба, видео

Регистрация Запомнить меня
Войти через:  Facebook Google Twitter Vk Yandex Mail.ru

The Allman Brothers Band - Soulshine Live - таба, видео

Печатать
Просмотров: 114
----------------------------------------------------------------------------
                 SOULSHINE - The Allman Brothers Band
    (live) @ Alltel Pavilion At Walnut Creek Raleigh, NC 8/10/03
----------------------------------------------------------------------------
Tabbed by:  ijttlfc
Email:    ijttlfc@yahoo.com

Tuning: Standard


  |         Bb            |         F        |
e|--------------------------------------------|
B|------------------------------6-------------|
G|--------3------5b7--5b7---5b7---5b7--5--5---|
D|--3/5-5----h5-------------------------------|
A|--------------------------------------------|
E|--------------------------------------------|

  |                Gm            |       Ab     |
e|-----------------------------------------------|
B|-----------------------------------------------|
G|-7b5p3-----------3--3—3h5---5-3---3----------3-|
D|----------3/5-----------------------5----------|
A|-----------------------------------------3/5---|
E|-----------------------------------------------|

  |           Bb              |            F            |     
e|-------------------------------------13----------------|
B|----------11----13b15-13b15----13b15----13b15--13-13---|
G|-10/12-12----12----------------------------------------|
D|-------------------------------------------------------|
A|-------------------------------------------------------|
E|-------------------------------------------------------|

  |             Gm              |             Ab           |
e|---------------------------------13b15-13-----------------|
B|---15b13p11-------11-11—11h13--------------15-13-11---11--|
G|------------10/12-----------------------------------------|
D|----------------------------------------------------------|
A|----------------------------------------------------------|
E|----------------------------------------------------------|


Chords:

   Bb  F    Gm  Ab 
e|-6---8----3---4--|
B|-6---10---3---4--|
G|-7---10---3---5--|
D|-8---10---5---6--|
A|-8---8----5---6--|
E|-6--------3---4--|





|||   /  slide up           |||
|||   b  bend (up or down)  |||
|||   h  hammer-on          |||
|||   p  pull-off           |||

============================================================================
Добавлено: 26.06.2012
Другие материалы по этой песне:
  • Аккорды и текст

Страница создана 26.06.2012
http://primanota.ru/the-allman-brothers-band/soulshine-live-chords.htm
Привет, Гость.
Предлагаем пройти революционный курс по гитаре.
Подарок от PrimaNota.Ru, забирай!