PrimaNota.ru - самый крупный в мире бесплатный архив песенных текстов, аккордов, табулатур и нот


The Allman Brothers Band - Old Friend - текст песни, таба, видео

Регистрация Запомнить меня
Войти через:  Facebook Google Twitter Vk Yandex Mail.ru

The Allman Brothers Band - Old Friend - текст песни, таба, видео

Печатать
Просмотров: 311
[Warren Haynes & Derek Trucks Intro Solos]

***CAPO on 2nd Fret***

[Song Intro]
E |----------------------------------|------------------------x------------|
C |3\2-p0----/5--3-----0----------0--|--3\2-p0-----/5--3------x------------|
G |-------------------------3/4 -----|------------------------x------------|
C |----------------------------------|------------------------x------------|
G |----------------------------------|------------------------x------------|
C |----------------------------------|------------------------x------------|

E |----------------------------------|-----------------------------|-------|
C |-3\2-p0-----/5--3-----0--------0--|-----------------------------|-------|
G |-------------------------3/4------|--3\2-p0-----------3/5-------|-------|
C |----------------------------------|-----------3\2-p0------------|-------|
G |----------------------------------|-----------------------------|-------|
C |----------------------------------|-----------------------------|-------|

E |----------------------------------|------------------------x------------|
C |3\2-p0----/5--3-----0----------0--|--3\2-p0-----/5--3------x------------|
G |-------------------------3/4 -----|------------------------x------------|
C |----------------------------------|------------------------x------------|
G |----------------------------------|------------------------x------------|
C |----------------------------------|------------------------x------------|

E |----------------------------------|--------------------------|----------|
C |-3\2-p0----/5--3---3-4-5-6-7-0----|--------------------------|----------|
G |----------------------------------|--3\2-p0-----------3/5----|----------|
C |----------------------------------|-----------3\2-p0---------|----------|
G |----------------------------------|--------------------------|----------|
C |----------------------------------|--------------------------|----------|

[Verse 1]
E |----------0-------------------|-------3--------------|-------/5---------|
C |----------0-------------------|-------3--------------|-------/5---------|
G |----------0-------------------|-------3--------------|-------/5---------|
C |----------0-------------------|-------3--------------|-------/5---------|
G |----------0-------------------|-------3--------------|-------/5---------|
C |----------0-------------------|-------3--------------|-------/5---------|
   You know hard time is   just an old friend,    just an old friend to me

E |----------------------------------|-------------------------------------|
C |3\2-p0----/5--3-----0----------0--|--3\2-p0-----/5--3-------------------|
G |-------------------------3/4 -----|-------------------------------------|
C |----------------------------------|-------------------------------------|
G |----------------------------------|-------------------------------------|
C |----------------------------------|-------------------------------------|

E |----------0-------------------|-------3--------------|-------/5---------|
C |----------0-------------------|-------3--------------|-------/5---------|
G |----------0-------------------|-------3--------------|-------/5---------|
C |----------0-------------------|-------3--------------|-------/5---------|
G |----------0-------------------|-------3--------------|-------/5---------|
C |----------0-------------------|-------3--------------|-------/5---------|
     I say hard time is    just an old friend,    just an old friend to me

E |----------------------------------|-----------------------------|-------|
C |-3\2-p0-----/5--3-----0--------0--|-----------------------------|-------|
G |-------------------------3/4------|--3\2-p0-----------3/5-------|-------|
C |----------------------------------|-----------3\2-p0------------|-------|
G |----------------------------------|-----------------------------|-------|
C |----------------------------------|-----------------------------|-------|

E |----------7-------------------|------/12-------------|-------\5---------|
C |----------7-------------------|------/12-------------|-------\5---------|
G |----------7-------------------|------/12-------------|-------\5---------|
C |----------7-------------------|------/12-------------|-------\5---------|
G |----------7-------------------|------/12-------------|-------\5---------|
C |----------7-------------------|------/12-------------|-------\5---------|
Tell me now, old friend,              ohhhhh      when you gonna let me be?

E |----------------------------------|-----------------------------|-------|
C |-3\2-p0-----/5--3-----0--------0--|-----------------------------|-------|
G |-------------------------3/4------|--3\2-p0-----------3/5-------|-------|
C |----------------------------------|-----------3\2-p0------------|-------|
G |----------------------------------|-----------------------------|-------|
C |----------------------------------|-----------------------------|-------|

[Verse 2]
E |----------0-------------------|-------3--------------|-------/5---------|
C |----------0-------------------|-------3--------------|-------/5---------|
G |----------0-------------------|-------3--------------|-------/5---------|
C |----------0-------------------|-------3--------------|-------/5---------|
G |----------0-------------------|-------3--------------|-------/5---------|
C |----------0-------------------|-------3--------------|-------/5---------|
Can't you feel a cold wind           howlin' down,          blowin' my song 

E |----------------------------------|-------------------------------------|
C |3\2-p0----/5--3-----0----------0--|--3\2-p0-----/5--3-------------------|
G |-------------------------3/4 -----|-------------------------------------|
C |----------------------------------|-------------------------------------|
G |----------------------------------|-------------------------------------|
C |----------------------------------|-------------------------------------|

E |----------0-------------------|-------3--------------|-------/5---------|
C |----------0-------------------|-------3--------------|-------/5---------|
G |----------0-------------------|-------3--------------|-------/5---------|
C |----------0-------------------|-------3--------------|-------/5---------|
G |----------0-------------------|-------3--------------|-------/5---------|
C |----------0-------------------|-------3--------------|-------/5---------|
Can't you feel a cold wind          howlin' down,         blowin' my song

E |----------------------------------|-----------------------------|-------|
C |-3\2-p0-----/5--3-----0--------0--|-----------------------------|-------|
G |-------------------------3/4------|--3\2-p0-----------3/5-------|-------|
C |----------------------------------|-----------3\2-p0------------|-------|
G |----------------------------------|-----------------------------|-------|
C |----------------------------------|-----------------------------|-------|

E |----------7-------------------|------/12-------------|-------\5---------|
C |----------7-------------------|------/12-------------|-------\5---------|
G |----------7-------------------|------/12-------------|-------\5---------|
C |----------7-------------------|------/12-------------|-------\5---------|
G |----------7-------------------|------/12-------------|-------\5---------|
C |----------7-------------------|------/12-------------|-------\5---------|
  Well, I ain't an old man,             ohh  but you know my time ain't long

E |----------------------------------|-----------------------------|-------|
C |-3\2-p0-----/5--3-----0--------0--|-----------------------------|-------|
G |-------------------------3/4------|--3\2-p0-----------3/5-------|-------|
C |----------------------------------|-----------3\2-p0------------|-------|
G |----------------------------------|-----------------------------|-------|
C |----------------------------------|-----------------------------|-------|

[Verse 3]
E |----------0-------------------|-------3--------------|-------/5---------|
C |----------0-------------------|-------3--------------|-------/5---------|
G |----------0-------------------|-------3--------------|-------/5---------|
C |----------0-------------------|-------3--------------|-------/5---------|
G |----------0-------------------|-------3--------------|-------/5---------|
C |----------0-------------------|-------3--------------|-------/5---------|
Gonna be a hard rain     you can hear it in the distance,   sounds so near

E |----------------------------------|-------------------------------------|
C |3\2-p0----/5--3-----0----------0--|--3\2-p0-----/5--3-------------------|
G |-------------------------3/4 -----|-------------------------------------|
C |----------------------------------|-------------------------------------|
G |----------------------------------|-------------------------------------|
C |----------------------------------|-------------------------------------|

E |----------0-------------------|-------3--------------|-------/5---------|
C |----------0-------------------|-------3--------------|-------/5---------|
G |----------0-------------------|-------3--------------|-------/5---------|
C |----------0-------------------|-------3--------------|-------/5---------|
G |----------0-------------------|-------3--------------|-------/5---------|
C |----------0-------------------|-------3--------------|-------/5---------|
Gonna be a hard rain     you can hear it in the distance,    sounds so near

E |----------------------------------|-----------------------------|-------|
C |-3\2-p0-----/5--3-----0--------0--|-----------------------------|-------|
G |-------------------------3/4------|--3\2-p0-----------3/5-------|-------|
C |----------------------------------|-----------3\2-p0------------|-------|
G |----------------------------------|-----------------------------|-------|
C |----------------------------------|-----------------------------|-------|

E |----------7-------------------|------/12-------------|-------\5---------|
C |----------7-------------------|------/12-------------|-------\5---------|
G |----------7-------------------|------/12-------------|-------\5---------|
C |----------7-------------------|------/12-------------|-------\5---------|
G |----------7-------------------|------/12-------------|-------\5---------|
C |----------7-------------------|------/12-------------|-------\5---------|
  People, when the rain comes, it's gonna wash us all away from here

E |----------------------------------|-----------------------------|-------|
C |-3\2-p0-----/5--3-----0--------0--|-----------------------------|-------|
G |-------------------------3/4------|--3\2-p0-----------3/5-------|-------|
C |----------------------------------|-----------3\2-p0------------|-------|
G |----------------------------------|-----------------------------|-------|
C |----------------------------------|-----------------------------|-------|

[Warren Haynes Solo]
E |----------0-------------------|-------3--------------|-------/5---------|
C |----------0-------------------|-------3--------------|-------/5---------|
G |----------0-------------------|-------3--------------|-------/5---------|
C |----------0-------------------|-------3--------------|-------/5---------|
G |----------0-------------------|-------3--------------|-------/5---------|
C |----------0-------------------|-------3--------------|-------/5---------|

E |----------------------------------|-------------------------------------|
C |3\2-p0----/5--3-----0----------0--|--3\2-p0-----/5--3-------------------|
G |-------------------------3/4 -----|-------------------------------------|
C |----------------------------------|-------------------------------------|
G |----------------------------------|-------------------------------------|
C |----------------------------------|-------------------------------------|

E |----------0-------------------|-------3--------------|-------/5---------|
C |----------0-------------------|-------3--------------|-------/5---------|
G |----------0-------------------|-------3--------------|-------/5---------|
C |----------0-------------------|-------3--------------|-------/5---------|
G |----------0-------------------|-------3--------------|-------/5---------|
C |----------0-------------------|-------3--------------|-------/5---------|

E |----------------------------------|-----------------------------|-------|
C |-3\2-p0-----/5--3-----0--------0--|-----------------------------|-------|
G |-------------------------3/4------|--3\2-p0-----------3/5-------|-------|
C |----------------------------------|-----------3\2-p0------------|-------|
G |----------------------------------|-----------------------------|-------|
C |----------------------------------|-----------------------------|-------|

E |----------7-------------------|------/12-------------|-------\5---------|
C |----------7-------------------|------/12-------------|-------\5---------|
G |----------7-------------------|------/12-------------|-------\5---------|
C |----------7-------------------|------/12-------------|-------\5---------|
G |----------7-------------------|------/12-------------|-------\5---------|
C |----------7-------------------|------/12-------------|-------\5---------|

E |----------------------------------|-----------------------------|-------|
C |-3\2-p0-----/5--3-----0--------0--|-----------------------------|-------|
G |-------------------------3/4------|--3\2-p0-----------3/5-------|-------|
C |----------------------------------|-----------3\2-p0------------|-------|
G |----------------------------------|-----------------------------|-------|
C |----------------------------------|-----------------------------|-------|

[Derek Trucks Solo]
E |----------0-------------------|-------3--------------|-------/5---------|
C |----------0-------------------|-------3--------------|-------/5---------|
G |----------0-------------------|-------3--------------|-------/5---------|
C |----------0-------------------|-------3--------------|-------/5---------|
G |----------0-------------------|-------3--------------|-------/5---------|
C |----------0-------------------|-------3--------------|-------/5---------|

E |----------------------------------|-------------------------------------|
C |3\2-p0----/5--3-----0----------0--|--3\2-p0-----/5--3-------------------|
G |-------------------------3/4 -----|-------------------------------------|
C |----------------------------------|-------------------------------------|
G |----------------------------------|-------------------------------------|
C |----------------------------------|-------------------------------------|

E |----------0-------------------|-------3--------------|-------/5---------|
C |----------0-------------------|-------3--------------|-------/5---------|
G |----------0-------------------|-------3--------------|-------/5---------|
C |----------0-------------------|-------3--------------|-------/5---------|
G |----------0-------------------|-------3--------------|-------/5---------|
C |----------0-------------------|-------3--------------|-------/5---------|

E |----------------------------------|-----------------------------|-------|
C |-3\2-p0-----/5--3-----0--------0--|-----------------------------|-------|
G |-------------------------3/4------|--3\2-p0-----------3/5-------|-------|
C |----------------------------------|-----------3\2-p0------------|-------|
G |----------------------------------|-----------------------------|-------|
C |----------------------------------|-----------------------------|-------|

E |----------7-------------------|------/12-------------|-------\5---------|
C |----------7-------------------|------/12-------------|-------\5---------|
G |----------7-------------------|------/12-------------|-------\5---------|
C |----------7-------------------|------/12-------------|-------\5---------|
G |----------7-------------------|------/12-------------|-------\5---------|
C |----------7-------------------|------/12-------------|-------\5---------|


E |----------------------------------|-----------------------------|-------|
C |-3\2-p0-----/5--3-----0--------0--|-----------------------------|-------|
G |-------------------------3/4------|--3\2-p0-----------3/5-------|-------|
C |----------------------------------|-----------3\2-p0------------|-------|
G |----------------------------------|-----------------------------|-------|
C |----------------------------------|-----------------------------|-------|

[Verse 4]
E |----------0-------------------|-------3--------------|-------/5---------|
C |----------0-------------------|-------3--------------|-------/5---------|
G |----------0-------------------|-------3--------------|-------/5---------|
C |----------0-------------------|-------3--------------|-------/5---------|
G |----------0-------------------|-------3--------------|-------/5---------|
C |----------0-------------------|-------3--------------|-------/5---------|
     Mean old woman,               people won't you tell me where can she be

E |----------------------------------|-------------------------------------|
C |3\2-p0----/5--3-----0----------0--|--3\2-p0-----/5--3-------------------|
G |-------------------------3/4 -----|-------------------------------------|
C |----------------------------------|-------------------------------------|
G |----------------------------------|-------------------------------------|
C |----------------------------------|-------------------------------------|

E |----------0-------------------|-------3--------------|-------/5---------|
C |----------0-------------------|-------3--------------|-------/5---------|
G |----------0-------------------|-------3--------------|-------/5---------|
C |----------0-------------------|-------3--------------|-------/5---------|
G |----------0-------------------|-------3--------------|-------/5---------|
C |----------0-------------------|-------3--------------|-------/5---------|
     Mean old woman,               people won't you tell me where can she be

E |----------------------------------|-----------------------------|-------|
C |-3\2-p0-----/5--3-----0--------0--|-----------------------------|-------|
G |-------------------------3/4------|--3\2-p0-----------3/5-------|-------|
C |----------------------------------|-----------3\2-p0------------|-------|
G |----------------------------------|-----------------------------|-------|
C |----------------------------------|-----------------------------|-------|

E |----------7-------------------|------/12-------------|-------\5---------|
C |----------7-------------------|------/12-------------|-------\5---------|
G |----------7-------------------|------/12-------------|-------\5---------|
C |----------7-------------------|------/12-------------|-------\5---------|
G |----------7-------------------|------/12-------------|-------\5---------|
C |----------7-------------------|------/12-------------|-------\5---------|
       She's the only woman          that ever meant a damn to me

E |----------------------------------|-----------------------------|-------|
C |-3\2-p0-----/5--3-----0--------0--|-----------------------------|-------|
G |-------------------------3/4------|--3\2-p0-----------3/5-------|-------|
C |----------------------------------|-----------3\2-p0------------|-------|
G |----------------------------------|-----------------------------|-------|
C |----------------------------------|-----------------------------|-------|

[Verse 5]
E |----------0-------------------|-------3--------------|-------/5---------|
C |----------0-------------------|-------3--------------|-------/5---------|
G |----------0-------------------|-------3--------------|-------/5---------|
C |----------0-------------------|-------3--------------|-------/5---------|
G |----------0-------------------|-------3--------------|-------/5---------|
C |----------0-------------------|-------3--------------|-------/5---------|
   You know hard time is   just an old friend,    just an old friend to me

E |----------------------------------|-------------------------------------|
C |3\2-p0----/5--3-----0----------0--|--3\2-p0-----/5--3-------------------|
G |-------------------------3/4 -----|-------------------------------------|
C |----------------------------------|-------------------------------------|
G |----------------------------------|-------------------------------------|
C |----------------------------------|-------------------------------------|

E |----------0-------------------|-------3--------------|-------/5---------|
C |----------0-------------------|-------3--------------|-------/5---------|
G |----------0-------------------|-------3--------------|-------/5---------|
C |----------0-------------------|-------3--------------|-------/5---------|
G |----------0-------------------|-------3--------------|-------/5---------|
C |----------0-------------------|-------3--------------|-------/5---------|
     I say hard time is    just an old friend,    just an old friend to me

E |----------------------------------|-----------------------------|-------|
C |-3\2-p0-----/5--3-----0--------0--|-----------------------------|-------|
G |-------------------------3/4------|--3\2-p0-----------3/5-------|-------|
C |----------------------------------|-----------3\2-p0------------|-------|
G |----------------------------------|-----------------------------|-------|
C |----------------------------------|-----------------------------|-------|

E |----------7-------------------|------/12-------------|-------\5---------|
C |----------7-------------------|------/12-------------|-------\5---------|
G |----------7-------------------|------/12-------------|-------\5---------|
C |----------7-------------------|------/12-------------|-------\5---------|
G |----------7-------------------|------/12-------------|-------\5---------|
C |----------7-------------------|------/12-------------|-------\5---------|
Tell me now, old friend,              ohhhhh      when you gonna let me be?

E |----------------------------------|-----------------------------|-------|
C |-3\2-p0-----/5--3-----0--------0--|-----------------------------|-------|
G |-------------------------3/4------|--3\2-p0-----------3/5-------|-------|
C |----------------------------------|-----------3\2-p0------------|-------|
G |----------------------------------|-----------------------------|-------|
C |----------------------------------|-----------------------------|-------|

E |----------7-------------------|------/12-------------|-------\5---------|
C |----------7-------------------|------/12-------------|-------\5---------|
G |----------7-------------------|------/12-------------|-------\5---------|
C |----------7-------------------|------/12-------------|-------\5---------|
G |----------7-------------------|------/12-------------|-------\5---------|
C |----------7-------------------|------/12-------------|-------\5---------|
Tell me now, old friend,         when you gonna let this poor man be?

[Outro]
E |----------------------------------|------------------------x------------|
C |3\2-p0----/5--3-----0----------0--|--3\2-p0-----/5--3------x------------|
G |-------------------------3/4 -----|------------------------x------------|
C |----------------------------------|------------------------x------------|
G |----------------------------------|------------------------x------------|
C |----------------------------------|------------------------x------------|

E |----------------------------------|--------------------------|----------|
C |-3\2-p0----/5--3---3-4-5-6-7-0----|--------------------------|----------|
G |----------------------------------|--3\2-p0-----------3/5----|----------|
C |----------------------------------|-----------3\2-p0---------|----------|
G |----------------------------------|--------------------------|----------|
C |----------------------------------|--------------------------|----------|
Добавлено: 16.05.2012
Другие материалы по этой песне:
  • Аккорды и текст

Страница создана 16.05.2012
http://primanota.ru/the-allman-brothers-band/old-friend-chords.htm
Привет, Гость.
Предлагаем пройти революционный курс по гитаре.
Подарок от PrimaNota.Ru, забирай!