PrimaNota.ru - самый крупный в мире бесплатный архив песенных текстов, аккордов, табулатур и нот


The Allman Brothers Band - Hot Lanta - текст песни, таба, бас-таба, видео

Регистрация Запомнить меня
Войти через:  Facebook Google Twitter Vk Yandex Mail.ru

The Allman Brothers Band - Hot Lanta - текст песни, таба, бас-таба, видео

Печатать
Просмотров: 160
Уроки эстрадного вокала в Санкт-Петербурге
Авторы музыки: Jai Johanny Johanson, Gregg Allman, Duane Allman, Butch Trucks, Dickey Betts, Berry Oakley

                      Hot 'Lanta (Forrest Richard Betts)
                          The Allman Brothers Band
                            Live At Fillmore East

1st Guitar Solo (Duane Allman):
|-------------------------------------8-10-12-10-8-10-|
|---8--10-10-10p8----10-10--10p8---10-----------------|
|-9---------------9--------------9--------------------|
|-----------------------------------------------------|
|-----------------------------------------------------|
|-----------------------------------------------------|

|-10-12-10-8-----------------------------------------------|
|------------10-8---------5-8------------------------------|
|-----------------9-7-5-7--------5h7p5---5h7p5-5h7p5-5h7p5-|
|----------------------------------------------------------|
|----------------------------------------------------------|
|----------------------------------------------------------|

|---------------------------------------|
|-5h8p5-------5h8p5-5-----5---------5-7-|
|-------5h7p5---------5-7---5-7---7-----|
|---------------------------------------|
|---------------------------------------|
|---------------------------------------|

|---8p7p5-----8p7p5-----8p7p5---5--8--8/12-|
|-5------8p7p5-----8p7p5-------------------|
|------------------------------------------|
|------------------------------------------|
|------------------------------------------|
|------------------------------------------|

|----8-10-10h12-8-10-/15-8-12p10p8----|
|-10-------------------------------10-|
|-------------------------------------|
|-------------------------------------|
|-------------------------------------|
|-------------------------------------|

|-15\12--15\12--15\12--15\12--15\12--15\12--15\12-|
|-------------------------------------------------|
|-------------------------------------------------|
|-------------------------------------------------|
|-------------------------------------------------|
|-------------------------------------------------|

|-12-12-12-12------(15)--------(15)------15-------|
|-13-13-13-13-15p13-15p13----15-15p13----15-13----|
|-------------------------14----------14-------14-|
|-------------------------------------------------|
|-------------------------------------------------|
|-------------------------------------------------|

|-(15)--------(15)----------------------------|
|--15p13----15-15p13----15-15p13----13-13--13-|
|--------14----------14----------14-----------|
|---------------------------------------------|
|---------------------------------------------|
|---------------------------------------------|

|----------------------------------------------------|
|-15p13----13--15p13----13--15p13----13--15p13----13-|
|-------14-----------14-----------14-----------14----|
|----------------------------------------------------|
|----------------------------------------------------|
|----------------------------------------------------|

|----15-----------------------17-17-|
|-15----13-15-13-----------17-------|
|----------------14-14-14-----------|
|-----------------------------------|
|-----------------------------------|
|-----------------------------------|

|-20p17--20p17--20p17--20p17--20p17--20p17--20p17--20p17--20p17--20p17--22-|
|------17-----17-----17-----17-----17-----17-----17-----17-----17-----17---|
|--------------------------------------------------------------------------|
|--------------------------------------------------------------------------|
|--------------------------------------------------------------------------|
|--------------------------------------------------------------------------|

|-20---17--20--15-15--17--15--12--15-|
|------------------------------------|
|------------------------------------|
|------------------------------------|
|------------------------------------|
|------------------------------------|


|-------------------------------|
|-------------------------------|
|-5-------------5---------------|
|---7-7--5-7-7----7-7--5-7-7-5--|
|-------------------------------|
|-------------------------------|


2nd Guitar Solo (Dickey Betts):
|-------------------------------------------------|
|-------------------4-5---4-5-7-5-7-8-7-8-10-8-10-|
|-----4-5-7---4-5-7-------------------------------|
|-5-7---------------------------------------------|
|-------------------------------------------------|
|-------------------------------------------------|

|-7--8-10-7--8-10-8------------------7-8-10-12-15-12-12--17-15-12-10-8-10---|
|-------------------10-10-8-10-----8--------------------------------------8-|
|--------------------------------9------------------------------------------|
|---------------------------------------------------------------------------|
|---------------------------------------------------------------------------|
|---------------------------------------------------------------------------|

|-------------------------------|
|-------------------------------|
|-5-------------5---------------|
|---7-7--5-7-7----7-7--5-7-7-5--|
|-------------------------------|
|-------------------------------|

|---------------------------------------------------------------------------|
|----------------------4-5-4---4---4-5-4---4---4-5-4---4---4-5-4---4-5-4---4|
|----------------4---7-------7---7-------7---7-------7---7-------7-------7--|
|------4-5-4-5-7---7--------------------------------------------------------|
|4-5-7----------------------------------------------------------------------|
|---------------------------------------------------------------------------|

|-------------8-10-8----12----8-10-8----8-|
|-/10-8-10-10--------10----10--------10---|
|-----------------------------------------|
|-----------------------------------------|
|-----------------------------------------|
|-----------------------------------------|

|--------------------------------|
|---8-10-8---8-------------------|
|-9--------9---7p5-5-7-----------|
|-----------------7----5-7-5---5-|
|----------------------------7---|
|--------------------------------|
End of Solo
Добавлено: 28.07.2012
Другие материалы по этой песне:

Страница создана 24.03.2012
http://primanota.ru/the-allman-brothers-band/hot-lanta-chords.htm
Привет, Гость.
Предлагаем пройти революционный курс по гитаре.
Подарок от PrimaNota.Ru, забирай!