PrimaNota.ru - самый крупный в мире бесплатный архив песенных текстов, аккордов, табулатур и нот


The Album Leaf - The Light - таба, видео

Регистрация Запомнить меня
Войти через:  Facebook Google Twitter Vk Yandex Mail.ru

The Album Leaf - The Light - таба, видео

Печатать
Просмотров: 93
-------------------------------------------------------------------------------
                             THE LIGHT - The Album Leaf
-------------------------------------------------------------------------------
Tabbed by: izaox
E-mail: orzechowska.iza@gmail.com
-------------------------------------------------------------------------------
I know this song from 'Scandal' and I looove it! 
I couldn't find tabs for it anywhere so I created my own.
They are my first tabs so sorry if there is any mistake.. 
Hope you'll like it! :) x
-------------------------------------------------------------------------------
Tuning:

e|---------------------------------------------------------------------------|
B|-----------------------------------------4---6-4---------4---6-4-----------|
G|-------------------------------------5---------------5---------------------|
D|---3---1-----------3---1---------------------------------------------------|
A|-----------4---------------4-----------------------------------------------|
E|--------------4----------------4-------------------------------------------|

e|---------------------------------------------------------------------------|
B|---9-8-6-4----6-4-2-----9-8-6-4----6-4-2----------4---6-4------------------|
G|-------------------5--------------------5----5-----------------------------|
D|---------------------------------------------------------------------------|
A|---------------------------------------------------------------------------|
E|---------------------------------------------------------------------------|

e|---------------------------------------------------------------------------|
B|-------4---6-4-2-----9-8-6-4----6-4-2---------4---6-4-2---------4---6-4-2--|
G|---5------------5--------------------5----5------------5----5------------5-|
D|---------------------------------------------------------------------------|
A|---------------------------------------------------------------------------|
E|---------------------------------------------------------------------------|

e|---------------------------------------------------------------------------|
B|---9-8-6-4----6-4-2-----9-8-6-4----6-4-2---------4---6-4-2-----------------|
G|-------------------5--------------------5---5--------------5---------------|
D|---------------------------------------------------------------------------|
A|---------------------------------------------------------------------------|
E|---------------------------------------------------------------------------|

e|---------------------------------------------------------------------------|
B|-------4---6---2-----------------------------------------------------------|
G|---5-------------5---------------------------------------------------------|
D|---------------------------------------------------------------------------|
A|---------------------------------------------------------------------------|
E|---------------------------------------------------------------------------|
Добавлено: 26.10.2014
Другие материалы по этой песне:
  • Аккорды и текст

Страница создана 26.10.2014
http://primanota.ru/the-album-leaf/light-chords.htm
Привет, Гость.
Предлагаем пройти революционный курс по гитаре.
Подарок от PrimaNota.Ru, забирай!