PrimaNota.ru - самый крупный в мире бесплатный архив песенных текстов, аккордов, табулатур и нот


The Akas - Gotta Get Outta Here - текст песни, бас-таба, видео

Регистрация Запомнить меня
Войти через:  Facebook Google Twitter Vk Yandex Mail.ru

The Akas - Gotta Get Outta Here - текст песни, бас-таба, видео

Печатать
Просмотров: 107
The A.K.A.s
Gotta Get Out Of Here
Drop D Tuning

This song has a lot of parts, but it repeats them three times so it looks longer and 
complex than it really is.  Comments, suggestions, ratings, and constructive criticism are 
welcome.  Thanks and enjoy! :)

\ = Slide down
/ = Slide up

Intro – 0:06 - (1x)
G|---------------|
D|---------------|
A|--5--5---------|
D|--------\12/---|

Part A – 0:11 – (4x)
G|----------------|
D|----------------|
A|----5-5---------|
D|--0-----757-0---|

Part B – 0:23 - (8x)
G|--------------|
D|--------------|
A|----5-5-------|
D|--0-----757---|

Part C – 0:35 - (1x)
G|---------|
D|---------|
A|---------|
D|--3--5---|

Part D – 0:38 - (8x)
G|-----------------------|
D|-----------------------|
A|--55555555-0000--------|
D|----------------3333---|

Part A – 1:00 – (4x)

Part E – 1:12 - (1x)
G|----------------------------|
D|------3---------7-5-3-------|
A|----5---5-3-----------5-3---|
D|--3---------3-5-------------|

Part B – 1:16 – (2x)

Part F – 1:19 - (x)
G|-------------------|
D|-------------------|
A|-------------------|
D|--333333--555555---|

Part B – 1:22 – (2x)

Part E – 1:25 – (1x)

Part B – 1:27 – (2x)

Part F – 1:30 – (1x)

Part G – 1:33 – (1x)
G|------|
D|------|
A|------|
D|--0---|

Part D – 1:35 – (5x)

Alt. Part D – 1:51 – (1x)
G|-----------------|
D|-----------------|
A|--55555555-0-----|
D|-------------3---|

Part D – 1:54 – (2x)

Part A – 1:59 – (4x)

Part E – 2:11 – (1x)

Part B – 2:14 – (2x)

Part F – 2:17 – (1x)

Part B – 2:20 - (2x)

Part E – 2:23 – (1x)

Part B – 2:26 – (2x)

Part F – 2:29 – (1x)

Part G – 2:31 – (1x)

Guitar Solo - 2:37 – (First part x2, Second part x3, Third part x1)
G|--11-14----------11-9-7777---|--11-9-7777---|--11-14------------|
D|--------12121212-------------|--------------|--------12121212---|
A|-----------------------------|--------------|-------------------|
D|-----------------------------|--------------|-------------------|

Alternate Intro – 2:52 – (Play first part x2, second part x1)
G|--------|----------|
D|--------|----------|
A|--5-5---|--55-55---|
D|--------|----------|

Part E – 3:00 - (1x)

Part B – 3:04 – (2x)

Part F – 3:06 - (1x)

Part B – 3:09 – (2x)

Part E – 3:12 – (1x)

Part B – 3:15 – (2x)

Part F – 3:18 – (1x)

Part B – 3:21 – (8x)

Part G – 3:33 – (1x)
Добавлено: 07.05.2012
Другие материалы по этой песне:
  • Аккорды и текст

Страница создана 07.03.2012
http://primanota.ru/the-akas/gotta-get-outta-here-chords.htm
Привет, Гость.
Предлагаем пройти революционный курс по гитаре.
Подарок от PrimaNota.Ru, забирай!