PrimaNota.ru - самый крупный в мире бесплатный архив песенных текстов, аккордов, табулатур и нот


The Afghan Whigs - Summers Kiss - текст песни, таба, видео

Регистрация Запомнить меня
Войти через:  Facebook Google Twitter Vk Yandex Mail.ru

The Afghan Whigs - Summers Kiss - текст песни, таба, видео

Печатать
Просмотров: 129
Уроки эстрадного вокала в Санкт-Петербурге
Авторы музыки: Greg Dulli
Авторы текста: Greg Dulli
AFGHAN WHIGS

SUMMER'S KISS

tabbed by dan (yellowledbetter_69@hotmail.co.uk)

standard tuning

|------0---------------|
|----------------------|
|---------------7------|
|-------------9--------|
|---7-------7----------|
|---0------------------|
intro    improv in E   not tabbing it all

|------------------------|
|------------------------|
|------------------------|
|--9-9-9--9-9-9--9-------|
|--7-7-7--7-7-7--0-------|
|--0-0-0--9-9-9----------|
play this after a few bars

|--------------------------|
|--------------------------|
|---9-9-9-9-9-9-9-9-9-9-9--|
|---9-9-9-9-9-9-9-9-9-9-9--|
|---7-7-7-7-7-7-7-7-7-7-7--|
|---0-0-0-0-0-0-0-0-0-0-0--|
build up to verse guitar 1

|--12-12-12-12-12-12-12-12-12---|
|-------------------------------|
|---9--9--9--9--9--9--9--9--9---|
|-------------------------------|
|-------------------------------|
|-------------------------------|
build up to verse guitar 2

|-----------------------------------|
|-----------------------------------|
|-----9------6-----2------2--2--2---|
|-----9------6-----2------2--2--2---|
|-----7------4-----0------0--0--0---|
|-----0-----------------------------|
verses       play loosely

|-------------------------|
|---5--5--5--5--5--5--5---|
|---6--6--6--6--6--6--6---|
|---6--6--6--6--6--6--6---|
|---4--4--4--4--4--4--4---|
|-------------------------|
chorus guitar 1  (chords implied by bass)

|---0--0--0--0--0-0---0--0--0--0--0-0---|
|---9-10-10-10--9-9---9-10-10-10--9-9---|
|---------------------------------------|
|---------------------------------------|
|---------------------------------------|
|---------------------------------------|
chorus guitar 2    play loosely

|------12----12-----------12-12----12----12-----------12----12----12-------|
|---12----12----12b14-12--------12----12-----12b14-12----12----12----12b14-|
|--------------------------------------------------------------------------|
|--------------------------------------------------------------------------|
|--------------------------------------------------------------------------|
|--------------------------------------------------------------------------|
outro guitar 2      guitar 1 plays verse

|---------------------------0---|
|---9-10-9-10-9--7--9--7\5--5---|
|-------------------------------|
|-------------------------------|
|-------------------------------|
|-------------------------------|
outro continued

|-----12----12-14-14-12-14-12-12---12--12-14-14-14-12----12--12-------------|
|--12----12----------------------12--12----------------12--12---12b14-12-12-|
|---------------------------------------------------------------------------|
|---------------------------------------------------------------------------|
|---------------------------------------------------------------------------|
|---------------------------------------------------------------------------|
outro continued

|-------------------------------0---|
|--9-10-9-10-9-7-9-7-9-9/10--9--5---|
|-----------------------------------|
|-----------------------------------|
|-----------------------------------|
|-----------------------------------|
outro continued

that's about it. any comments, suggestions etc email me.
Добавлено: 01.10.2013
Другие материалы по этой песне:
  • Аккорды и текст

Страница создана 19.03.2012
http://primanota.ru/the-afghan-whigs/summers-kiss-chords.htm
Привет, Гость.
Предлагаем пройти революционный курс по гитаре.
Подарок от PrimaNota.Ru, забирай!