PrimaNota.ru - самый крупный в мире бесплатный архив песенных текстов, аккордов, табулатур и нот


The Afghan Whigs - My Enemy - текст песни, таба, видео

Регистрация Запомнить меня
Войти через:  Facebook Google Twitter Vk Yandex Mail.ru

The Afghan Whigs - My Enemy - текст песни, таба, видео

Печатать
Просмотров: 106
Уроки эстрадного вокала в Санкт-Петербурге
Авторы музыки: Greg Dulli
Авторы текста: Greg Dulli
AFGHAN WHIGS

MY ENEMY

tabbed by dan (yellowledbetter_69@hotmail.co.uk)

standard tuning

|--------------------------------------------------------|
|------5--5--5--5--5--5--5--5---5--5--5--5--5--5--5--5---|
|------6--6--6--6--6--6--6--6---6--6--6--6--6--6--6--6---|
|------6--6--6--6--6--6--6--6---6--6--6--6--6--6--6--6---|
|------4--4--4--4--4--4--4--4---4--4--4--4--4--4--4--4---|
|--------------------------------------------------------|
guitar 1 intro/verse   all notes staccato

|-----0-0--0-0-0-0-0-0-0---0---0-0--0-0-0-0-0-0-0---0----|
|-----4-4--5-4-5-4-5-5-4-------4-4--5-4-5-4-5-5-4--------|
|--------------------------6------------------------6----|
|--------------------------------------------------------|
|--------------------------------------------------------|
|--------------------------------------------------------|
guitar 2 intro verse

|--------------------------------------------------------------------|
|-------7b9-7b9-7b9-7b9--/12--14-14-14----12-14-------------12-12----|
|----6--------------------''------------13-------13----13-13---------|
|----''--------------------------------------------------------------|
|----''--------------------------------------------------------------|
|--------------------------------------------------------------------|
guitar solo   ''=trem pick

|---------------------16b18r16---19b21-21-21-21-21r19-------|
|--14-12----17b19r17----------------------------------------|
|-----------------------------------------------------------|
|-----------------------------------------------------------|
|-----------------------------------------------------------|
|-----------------------------------------------------------|
guitar solo continued

|------------------------------------------------------|
|---------------------------5--5--5--5--5--5--5--5-----|
|---6--6--6--6--6--6--6--6--6--6--6--6--6--6--6--6-----|
|---7--7--7--7--7--7--7--7--6--6--6--6--6--6--6--6-----|
|---7--7--7--7--7--7--7--7--4--4--4--4--4--4--4--4-----|
|---5--5--5--5--5--5--5--5-----------------------------|
pre-chorus  guitar 1 (what the fuck behind my back.....)

|----------4-------------------4-----------------|
|--------5---5--4-5--4-5-----5---5--4-5--4-5-----|
|---4-4------------------4-4---------------------|
|------------------------------------------------|
|------------------------------------------------|
|------------------------------------------------|
pre-chorus guitar 2

|------------------------------------------|
|------------------------------------------|
|---4--4--4---6--6--6--6--6--6---8--8--8---|
|---4--4--4---6--6--6--6--6--6---8--8--8---|
|---2--2--2---4--4--4--4--4--4---6--6--6---|
|------------------------------------------|
guitars 1 and 2  pre chorus end

|------------------------------------------------------------------------|
|------------------------------------------------------------------------|
|--9-9-9-9-9-9-9-9-9-9-9-9-9-9-9---6-6-6-6-6--4-4-4-4-4--2-2-2-2-2-2-2---|
|--9-9-9-9-9-9-9-9-9-9-9-9-9-9-9---6-6-6-6-6--4-4-4-4-4--2-2-2-2-2-2-2---|
|--7-7-7-7-7-7-7-7-7-7-7-7-7-7-7---4-4-4-4-4--2-2-2-2-2--0-0-0-0-0-0-0---|
|--0-0-0-0-0-0-0-0-0-0-0-0-0-0-0-----------------------------------------|
chorus guitars 1 and 2

|--------------------------------------------------------|
|------------5-5-5-5-5-5-5-5------------5-5-5-5-5-5-5-5--|
|--4-4-4--6--6-6-6-6-6-6-6-6--4-4-4--6--6-6-6-6-6-6-6-6--|
|--4-4-4--6--6-6-6-6-6-6-6-6--4-4-4--6--6-6-6-6-6-6-6-6--|
|--2-2-2--4-------------------2-2-2--4-------------------|
|--------------------------------------------------------|
guitar 1 post chorus

|-----------0-0-0-0-0-0-0-0-0-0----------0-0-0-0-0-0-0-0-0-0--|
|-----------5-5-5-5-5-5-5-5-4-0----------5-5-5-5-5-5-5-5-4-0--|
|--4-4-4--6---------------------4-4-4--6----------------------|
|--4-4-4--6---------------------4-4-4--6----------------------|
|--2-2-2--4---------------------2-2-2--4----------------------|
|-------------------------------------------------------------|
guitar 2 post chorus

repeat other parts.

|----------------------12--------16vv16vv16-------------------|
|--7------9-----12--------------------------14-17-17b19r17----|
|--9b11--11b13--14b16-----14b16-------------------------------|
|-------------------------------------------------------------|
|-------------------------------------------------------------|
|-------------------------------------------------------------|
outro guitar 2  (guitar 1 plays chorus until end)

|---------19-19b21r19----19b21r19------------------------------------------|
|--17-17--------------17---------17--17b19r17--16h17p16-14-16-17b19vvvv----|
|--------------------------------------------------------------------------|
|--------------------------------------------------------------------------|
|--------------------------------------------------------------------------|
|--------------------------------------------------------------------------|
outro continued
Добавлено: 09.08.2013
Другие материалы по этой песне:
  • Аккорды и текст

Страница создана 03.03.2012
http://primanota.ru/the-afghan-whigs/my-enemy-chords.htm
Привет, Гость.
Предлагаем пройти революционный курс по гитаре.
Подарок от PrimaNota.Ru, забирай!