PrimaNota.ru - самый крупный в мире бесплатный архив песенных текстов, аккордов, табулатур и нот


The Advantage - Contra - Snowfields - таба, видео

Регистрация Запомнить меня
Войти через:  Facebook Google Twitter Vk Yandex Mail.ru

The Advantage - Contra - Snowfields - таба, видео

Печатать
Просмотров: 91
The Advantage - Contra - Snowfields
The Advantage (2004)
Tabbed by ruker (Varuker@gmail.com)
Standard Tuning EADGBE


Left Guitar - Upper
Right Guitar - Lower

||---------------------------------||
||---------------------------------||
||---------------------------------||
||---------------------------------||
||-7-7-7-7-7-7-7-7-7-7-7-7-7-7-7-7-||
||---------------------------------||
|                                   |
|                                   |
||---------------------------------||
||---------------------------------||
||---------------------------------||
||---------------------------------||
||-7-7-7-7-7-7-7-7-7-7-7-7-7-7-7-7-||
||---------------------------------||



||--------------------------------------------------------------------------------------|
||*----------9-----9--10----------9-----9--10----------9-----9--10----------9-----9--10-|
||--10-9--------9--------10-9--------9--------10-9--------9--------10-9--------9--------|
||--------------------------------------------------------------------------------------|
||*-------------------------------------------------------------------------------------|
||--------------------------------------------------------------------------------------|
|                                                                                       |
|                                                                                       |
||--------------------------------------------------------------------------------------|
||*-10-9-----12-10-12-13-10-9-----12-10-12-13-10-9-----12-10-12-13-10-9-----12-10-12-13-|
||--------------------------------------------------------------------------------------|
||--------------------------------------------------------------------------------------|
||*-------------------------------------------------------------------------------------|
||--------------------------------------------------------------------------------------|



|-------------------------------------------------------------------------------------|
|----------12----12-13----------12----12-13----------12----12-13----------12----12-13-|
|-13-12-------12-------13-12-------12-------13-12-------12-------13-12-------12-------|
|-------------------------------------------------------------------------------------|
|-------------------------------------------------------------------------------------|
|-------------------------------------------------------------------------------------|
|                                                                                     |
|                                                                                     |
|-------------------------------------------------------------------------------------|
|-13-12----15-13-15-16-13-12----15-13-15-16-13-12----15-13-15-16-13-12----15-13-15-16-|
|-------------------------------------------------------------------------------------|
|-------------------------------------------------------------------------------------|
|-------------------------------------------------------------------------------------|
|-------------------------------------------------------------------------------------|



|-------------------------------------------------------------------------------------|
|-12-11----------------14-13----------------12-11----------------14-13----------------|
|-------------------------------------------------------------------------------------|
|----------12-12-12-12----------14-14-14-14----------12-12-12-12----------14-14-14-14-|
|-------------------------------------------------------------------------------------|
|-------------------------------------------------------------------------------------|
|                                                                                     |
|                                                                                     |
|-11-10----------------13-12----------------11-10----------------13-12----------------|
|----------11-10-11-13----------11-10-11-13----------11-10-11-13----------11-10-11-13-|
|-------------------------------------------------------------------------------------|
|-------------------------------------------------------------------------------------|
|-------------------------------------------------------------------------------------|
|-------------------------------------------------------------------------------------|



|---------------------------------------------------|
|------------------------------------------8--------|
|----7--8--7------------------7--8--7-10-8----------|
|-7----------10-8-10----7--7---------------------7--|
|--------------------10-----------------------10----|
|---------------------------------------------------|
|                                                   |
|                                                   |
|---------------------------------------------------|
|-------------------------------------13---13-------|
|----14-15-1412---12----------14-15-14---15---------|
|-12------------15------15-12--------------------12-|
|--------------------15-----------------------15----|
|---------------------------------------------------|



|-------10----------10-----------------------------|
|----10----10----10----10-------10-10-------10-10--|
|-7-----------7-----------7--10-------7--10--------|
|--------------------------------------------------|
|--------------------------------------------------|
|--------------------------------------------------|
|                                                  |
|                                                  |
|-------------------------------10----------10-----|
|----------------------------10----13----10----13--|
|----------REST-----------10----------10-----------|
|--------------------------------------------------|
|--------------------------------------------------|
|--------------------------------------------------|



|---------------------------------------------------|
|------------------------------------------8--------|
|----7--8--7------------------7--8--7-10-8----------|
|-7----------10-8-10----7--7---------------------7--|
|--------------------10-----------------------10----|
|---------------------------------------------------|
|                                                   |
|                                                   |
|---------------------------------------------------|
|-------------------------------------13---13-------|
|----14-15-1412---12----------14-15-14---15---------|
|-12------------15------15-12--------------------12-|
|--------------------15-----------------------15----|
|---------------------------------------------------|

 ___________________
|1
|-------10----------10------------------------------||
|----10----10----10----10-------10-10-------10-10--*||
|-7-----------7-----------7--10-------7--10---------||
|---------------------------------------------------||
|--------------------------------------------------*||
|---------------------------------------------------||
|                                                    |
|                                                    |
|-------------------------------10----------10------||
|----------------------------10----13----10----13--*||
|----------REST-----------10----------10------------||
|---------------------------------------------------||
|--------------------------------------------------*||
|---------------------------------------------------||

  ___________________
 |2
||-------10----------10--------------------------||
||----10----10----10----10-------10-10-------10--||
||-7-----------7-----------7--10-------7--10-----||
||-----------------------------------------------||
||-----------------------------------------------||
||-----------------------------------------------||
|                                                 |
|                                                 |
||-------------------------------10----------10--||
||----------------------------10----13----10-----||
||----------REST-----------10----------10--------||
||-----------------------------------------------||
||-----------------------------------------------||
||-----------------------------------------------||
Добавлено: 10.06.2013
Вам также может быть интересно:
Другие материалы по этой песне:
  • Аккорды и текст

Страница создана 10.06.2013
http://primanota.ru/the-advantage/contra-snowfields-chords.htm
Привет, Гость.
Предлагаем пройти революционный курс по гитаре.
Подарок от PrimaNota.Ru, забирай!